Oops, an error
Loading. Please wait.

Blink 182 Bass Tab

ver2
ver2
More versions @911Tabs.com
4,384 views 1 this week
2 commentsread comments
1 2 3 4 5
worth learning
x 6
add to favorites launch autoscroll
font size
0
reset
Autoscroll
+/-
esc
set tempo
stop
Contributor
WARNING: You are trying to view
                                    content from Ultimate-Guitar.com
                                    in an unauthorized application,
                                    which is prohibited.

                                    Please use an official Ultimate
                                    Guitar Tabs application for iPhone,
                                    iPad or Android to access legitimate
                                    chords, guitar, bass, and drum tabs
                                    from Ultimate-Guitar.com database.

                                    Type "ultimate guitar tabs" in Apple
                                    App Store's or Android Market's
                                    search to find the application.
1. Feeling This 2:54

2. Obvious 2:43

3. I Miss You 3:47

4. Violence 5:20

5. Stockholm Syndrome 2:41

6. Down 3:03

7. The Fallen Interlude 2:12

8. Go 1:53

9. Asthenia 4:19

10. Always 4:11

11. Easy Target 2:20

12. All Of This (featuring Robert Smith of The Cure) 4:40.

13. Here's Your Letter 2:54

14. I'm Lost Without You 6:20

1. Feeling this


intro is all guitar and drums

verse
G|-----------|
D|-----------|
A|77777777-11|x8   they are elevens not ones
E|-----------|

chorus
G|-----------------------------------|
D|-----------------------------------|
A|---------22222222-44444444-00000000|x2
E|00000000---------------------------|

intro covers between the chorus and goes until the third line of the 2nd verse

verse
G|-----------|
D|-----------|
A|77777777-11|x6
E|-----------|

chorus
G|-----------------------------------|
D|-----------------------------------|
A|---------22222222-44444444-00000000|x2
E|00000000---------------------------|

all drums until mark starts singing"Look to the past...."

bridge/outro
G|-----------------------------------|
D|-----------------------------------|
A|77777777---------------------------|
E|---------77777777-99999999-55555555|


2. Obvious


intro(00:06)
|-----------|
|-66-6------|
|-44-4-7777-|x4
|-----------|

verse 1
|----------------------------------|
|----------------------------------|
|-4444444444444444-----------------|x2
|-----------------5555555555555555-|

chorus
|--------------------------|
|--------------------------|
|-7~~~------------444-6666-|x2
|-0~~~-444-222-555---------|

intro(00:42)
|-----------|
|-66-6------|
|-44-4-7777-|x4
|-----------|

verse 2
|----------------------------------|
|----------------------------------|
|-4444444444444444-----------------|x2
|-----------------5555555555555555-|

chorus
|--------------------------|
|--------------------------|
|-7~~~------------444-6666-|x4
|-0~~~-444-222-555---------|

bridge pt 1.(listen carefully..the last note is palm muted)
|----------------------------|
|----------------------------|
|-7~~~~~~~~~~~~~~~~~~~~~~----|x1
|-0~~~~~~~~~~~~~~~~~~~~~~--0-|

bridge pt 2.(01:36)
|---------------------|
|---------------------|
|--------444----------|x4
|-000-555---111-00-11-|

outro
|-----------------------------------|
|-----------------------------------|
|-7777777777777777-6666666666666666-|
|-----------------------------------|
                                             play this sequence 4 times
|------------------------------------------|
|------------------------------------------|
|-7777777777777777-00-22-66666666-44444444-|
|------------------------------------------|

end on
|----|
|-6~-|
|-4~-|x1
|----|

3. Miss You


Play It with a Capo on the second fret

Intro/Verse 1(00:04)
|----------------------------|
|----------------------------|
|----------------------------|x6
|-2/7-7--2/6-6--2/4-4--2/6-6-|

Break
|----------------------------------------|  |----|
|----------------------------------------|  |----|
|-2222-4444-6666-9999-7777-6666-22222222-|x2|-2~-|x1
|----------------------------------------|  |----|

Verse 2(01:18)
|----------------------------|
|----------------------------|
|----------------------------|x4
|-2/7-7--2/6-6--2/4-4--2/6-6-|

Chorus
|----------------------------------------|  |----|
|----------------------------------------|  |----|
|-2222-4444-6666-9999-7777-6666-22222222-|x2|-2~-|x1
|----------------------------------------|  |----|

Verse 3(02:15)-no singing
|----------------------------|
|----------------------------|
|----------------------------|x2
|-2/4-4--2/6-6--2/7-7--2/6-6-|

Chorus
|----------------------------------------|
|----------------------------------------|
|-2222-4444-6666-9999-7777-6666-22222222-|x8 fade out on 9th time
|----------------------------------------|


4.Violence

Intro
--------------|
--------------|
2-2222-2-2222-|
--------------|

Chorus/pre-verse
---------------------------------|
---------------------------------|
2222222-44444444-----------------|
----------------44444444-6666666-|

Verse (so easy ah!)
-------------------------------|----------|
----------------1--------------|----------|       *=let the note ring them play chorus
2-----------------------1------|-2--------|
-------------------------------|----------|

bridge ( maybe he puts some 8ths)
-----4----4----6---6--------------------|
------------------------6-----6---2---2-|
---22---22---44---44--------------------|
---------------------44----44---00--00--|

5.Stockholm Syndrome


Intro

|-----------------|-----------------|-----------------|-----------------|
|-----------------|-----------------|-----------------|-----------------|
|-----------------|-----------------|---3-3-3-3-------|-----------------|
|-0-0-0-0---------|-----------------|-----------------|-----------------|

|-----------------|-----------------|-----------------|-----------------|
|-----------------|-----------------|-----------------|-----------------|
|-2-2-2-2---------|-----------------|---0-0-0-0-------|-----------------|
|-----------------|-----------------|-----------------|-----------------|

|-----------------|-----------------|-----------------|-----------------|
|-----------------|-----------------|-----------------|-----------------|
|-----------------|-----------------|---3-3-3-3-------|-----------------|
|-0-0-0-0---------|-----------------|-----------------|-----------------|

|-----------------|-----------------|-----------------|-----------------|
|-----------------|-----------------|-----------------|-----------------|
|-2-2-2-2---------|-----------------|---0-0-0-0-------|--3-3-3--3-3-3-3-|
|-----------------|-----------------|-----------------|-----------------|

Chorus

|-----------------|-----------------|-----------------|-----------------|
|-----------------|-----------------|-----------------|-----------------|
|(3)--------------|-----------------|---3-3---3-3-3-3-|-3-3-3-3-3-3-3-3-|
|---0-0---0-0-0---|-0-0-0-0-0-0-0-0-|-----------------|-----------------|

|-----------------|-----------------|-----------------|-----------------|
|-----------------|-----------------|-----------------|-----------------|
|-----------------|-----------------|---0-0-0-0-0-0-0-|-----------------|
|-3-3-3-3-3-3-3-3-|-3-3-3-3-3-3-3-3-|-----------------|-2-2-2-2-2-2-2-2-|

|-----------------|-----------------|-----------------|-----------------|
|-----------------|-----------------|-----------------|-----------------|
|-----------------|-----------------|---3-3---3-3-3-3-|-3-3-3-3-3-3-3-3-|
|-2-0-0-0-0-0-0-0-|-0-0-0-0-0-0-0-0-|-----------------|-----------------|

|-----------------|-----------------|-----------------|-----------------|
|-----------------|-----------------|-----------------|-----------------|
|-----------------|-----------------|---0-0-0-0-0-0-0-|-3-3-3---3-3-3-0-|
|-3-3-3-3-3-3-3-3-|-3-3-3-3-3-3-3-3-|-----------------|-----------------|

Interlude

|-----------------|-----------------|-----------------|-----------------|
|-----------------|-----------------|-----------------|-----------------|
|-----------------|-----------------|-----------------|-----------------|
|-0---------------|-----------------|-3-3-3-3-3-2---3-|---3-3-3-3-3-3-0-|

|-----------------|-----------------|-----------------|-----------------|
|-----------------|-----------------|-----------------|-----------------|
|-----------------|-----------------|-----------------|-----------------|
|-0---------------|-----------------|-3-3-3-3-3-2---3-|---3-3-3-3-3-3-0-|

|-----------------|-----------------|-----------------|-----------------|
|-----------------|-----------------|-----------------|-----------------|
|-----------------|-----------------|-----------------|-----------------|
|-3---0-5---0-7---|-0-3---3-3-3-2-2-|-3-3-3-3-3-2-2-3-|-3-3-3-3-3-3-3-3-|

|-----------------|-----------------|-----------------|-----------------|
|-----------------|-----------------|-----------------|-----------------|
|-----------------|-----------------|-----------------|-----------------|
|-3---0-5---0-7---|-0-3---3-3-3-2-2-|-3-3-3-3-3-2-2-3-|-3-3-3-3-3-3-3-3-|

|-----------------|-----------------|-----------------|-----------------|
|-----------------|-----------------|-----------------|-----------------|
|-----------------|-----------------|-----------------|-----------------|
|-7-7-7-7-7-7-7-7-|-7-7-7-7-7-8-8-7-|-7-8-8-8-8-8-8-8-|-8-8-8-8-8-8-8-8-|

|-----------------|-----------------|-----------------|-----------------|
|-----------------|-----------------|-----------------|-----------------|
|-----------------|-----------------|-----------------|-----------------|
|-7-7-7-7-7-7-7-7-|-7-7-7-7-7-7-7-7-|-5-5-5-5-5-5-5-5-|-3-3-3-3-3-3-3-3-|

Verse

|-----------------|-----------------|-----------------|-----------------|
|-----------------|-----------------|-----------------|-----------------|
|-----------------|-----------------|-----------------|-----------------|
|-7-7-7-7-7-7-7-7-|-7-7-7-7-7-8-8-7-|-7-8-8-8-8-8-8-8-|-8-8-8-8-8-8-8-8-|

|-----------------|-----------------|-----------------|-----------------|
|-----------------|-----------------|-----------------|-----------------|
|-----------------|-----------------|-----------------|-----------------|
|-7-7-7-7-7-7-7-7-|-7-7-7-7-7-7-7-7-|-5-5-5-5-5-5-5-5-|-3-3-3-3-3-3-3-3-|

|-----------------|-----------------|-----------------|-----------------|
|-----------------|-----------------|-----------------|-----------------|
|-----------------|-----------------|-----------------|-----------------|
|-7-7-7-7-7-7-7-7-|-7-7-7-7-7-8-8-7-|-7-8-8-8-8-8-8-8-|-8-8-8-8-8-8-8-8-|

|-----------------|-----------------|-----------------|-----------------|
|-----------------|-----------------|-----------------|-----------------|
|-----------------|-----------------|-----------------|-----------------|
|-7-7-7-7-7-7-7-7-|-7-7-7-7-7-7-7-7-|-5-5-5-5-5-5-5-5-|-3---------------|

Pre-Chorus

|-----------------|-----------------|-----------------|-----------------|
|-----------------|-----------------|-----------------|-----------------|
|-2---2-2-2-2-2-2-|-2-2-2-2-2-2-2-2-|-3-3-3-3-3-3-3-3-|-3-3-3-3-3-3-3-0-|
|-----------------|-----------------|-----------------|-----------------|

|-----------------|-----------------|-----------------|-----------------|
|-----------------|-----------------|-----------------|-----------------|
|-2-2-2-2-2-2-2-2-|-2-2-2-2-2-2-2---|-----------------|-----------------|
|-----------------|---------------0-|-5-5-5-5-5-5-5-5-|-3-3-3-3-3-3-3-0-|

|-----------------|-----------------|-----------------|-----------------|
|-----------------|-----------------|-----------------|-----------------|
|-2---2-2-2-2-2-2-|-2-2-2-2-2-2-2-2-|-3-3-3-3-3-3-3-3-|-3-3-3-3-3-3-3-0-|
|-----------------|-----------------|-----------------|-----------------|

|-----------------|-----------------|-----------------|-----------------|
|-----------------|-----------------|-----------------|-----------------|
|-2-2-2-2-2-2-2-2-|-2-2-2-2-2-2-2---|-----------------|-----------------|
|-----------------|---------------0-|-5-5-5-5-5-5-5-5-|-3-3-3-3-3-3-3-3-|

End Note

|-----------------|-----------------|
|-----------------|-----------------|
|-2~~~~~~~~~~~~~~~|~-~--------------|
|-0~~~~~~~~~~~~~~~|~-~--------------|


Intro
Chorus
Interlude
Verse
Pre-Chorus
Chorus
End Note


6. Down


Intro
G/------------------------------------------------|
D/------------------------------------------------|
A/------------------------------------------------|
E/-5-5-5-5--5-5-5-5--5-5--2-2-2-2--4-4-4-4--4-4---| x2

Verse
G/------------------------------------------------|
D/------------------------------------------------|
A/-4----------------------------------------------|
E/---5-ring-5h7-2-2-2-2--4-4-4-4--4-4-------------| x4

End 4th with
G/------------|
D/------------|
A/------------|
E/-0-ring-----|

Chorus
G/-----------------------------------------------------|
D/-----------------------------------------------------|
A/-2-2-2-2-2222-4-4-4-4-4444-5-5-5-5-5555-0-0-0-0-0000-|
E/-----------------------------------------------------|
Chorus Continued
G/-----------------------------------------------------|
D/-----------------------------------------------------|
A/-2-2-2-2-2222-5-5-5-5-5555---------------------------|
E/-----------------------------------------------------| x1

Bridge (Down, Down, Down, Down....)
G/-----------------------------------------------------|
D/-----------------------------------------------------|
A/-2-2-2-2---------------------------------------------|
E/----------0-0-0-0--4-4-4-4--0-0-0-0------------------| x2

G/------------|
D/------------|
A/------------|
E/-0-ring-----| x3 During drums and effects

End with
G/------------|
D/------------|
A/------------|
E/-0-ring-----|

Order
-Intro  x2
-Verse  x4
-Chorus x1
-Bridge x2
-Intro  x1
-Verse  x4
-Chorus x1
-Bridge x2
-End

7. The Fallen Interlude
/
/
/


8. Go

Intro
G|-------------------------------------------------------------------|
D|-------------------------------------------------------------------|
A|-3333333333333333-8888888888888888---------------------------------| x2
E|-------------------------------------------------------------------|

First Verse
G|-------------------------------------------------------------------|
D|-------------------------------------------------------------------|
A|-3333333333333333--------------------------------------------------| x2
E|------------------1111111111111111---------------------------------|

Chorus
G|-------------------------------------------------------------------|
D|-------------------------------------------------------------------|
A|-00000000----------------------------------------------------------| x2
E|----------11111111-------------------------------------------------|

Intro
G|-------------------------------------------------------------------|
D|-------------------------------------------------------------------|
A|-3333333333333333-8888888888888888---------------------------------| x2
E|-------------------------------------------------------------------|

Second Verse
G|-------------------------------------------------------------------|
D|-------------------------------------------------------------------|
A|-3333333333333333--------------------------------------------------| x2
E|------------------1111111111111111---------------------------------|

Chorus
G|-------------------------------------------------------------------|
D|-------------------------------------------------------------------|
A|-00000000----------------------------------------------------------| x2
E|----------11111111-------------------------------------------------|

Bridge
G|-------------------------------------------------------------------|
D|-------------------------------------------------------------------|
A|-3333333333333333--------------------------------------------------| x2
E|------------------1111111111111111---------------------------------|

Third Verse
G|-------------------------------------------------------------------|
D|-------------------------------------------------------------------|
A|-3333333333333333--------------------------------------------------| x2
E|------------------1111111111111111---------------------------------|

Pre-Chorus - (I don't wanna know...) Mark is singing by himself here.
G|-------------------------------------------------------------------|
D|-------------------------------------------------------------------|
A|-0-----------------------------------------------------------------| x1
E|-------------------------------------------------------------------|

Chorus
G|-------------------------------------------------------------------|
D|-------------------------------------------------------------------|
A|-00000000----------------------------------------------------------| x2
E|----------11111111-------------------------------------------------|

Outro
G|-------------------------------------------------------------------|
D|-------------------------------------------------------------------|
A|-3333333333333333-8888888888888888---------------------------------| x2
E|-------------------------------------------------------------------|

G|-------------------------------------------------------------------|
D|-------------------------------------------------------------------|
A|-3333333333333333-8~~~~~~~~----------------------------------------| x1
E|-------------------------------------------------------------------|


9. Asthenia


Intro 2X

G--------------------------------|
D--------------------------------|
A-5555555-7777777-00000000000000-|
E--------------------------------|

No verse

Pre Chorus 2x
G----------------------------------------------|
D----------------------------------------------|
A-5555555-999-777-999-555-999-777-999-5555-----|
E------------------------------------------555-|

Chorus 2X
G--------------------------------|
D--------------------------------|
A-55-99-55-99-55555--------------|
E-------------------55555-777777-|

Intro 2x

verse

Pre Chorus

Chorus 4X

Bridge(not to sure)2x
G--------------------------------------------------------|
D--------------------------------------------------------|
A-55555555555--------------------------------------------|
E---------------33-00000000000-33333333333-5555555555555-|

2nd part

G--------------------------|
D--------------------------|
A-55555--------------------|
E-------000000-333333-5555-|


Chorus

Pre Chorus


10. Always

Intro

|-4-4-4-4-4-4-4-4-|-6-6-6-6-6-6-6-6/|/8-8-8-8-8-8-8-8\|\4-4-4-4-4-4-4-4-|
|-4-4-4-4-4-4-4-4-|-4-4-4-4-4-4-4-4/|/6-6-6-6-6-6-6-6\|\2-2-2-2-2-2-2-2/|
|-----------------|-----------------|-----------------|-----------------|
|-----------------|-----------------|-----------------|-----------------|

|-4-4-4-4-4-4-4-4-|-6-6-6-6-6-6-6-6/|/8-8-8-8-8-8-8-8\|\4-4-4-4-4-4-4-4/|
|/4-4-4-4-4-4-4-4-|-4-4-4-4-4-4-4-4/|/6-6-6-6-6-6-6-6\|\2-2-2-2-2-2-2-2/|
|-----------------|-----------------|-----------------|-----------------|
|-----------------|-----------------|-----------------|-----------------|

Verse

|-11-11-11-11-11-11-11-0-|-6-6-6-6-6-6-6-0-|-4-4-4-4-4-4-4-4-|-4-4-4-4-4-4-4-0-|
|-9--9--9--9--9--9--9--0-|-8-8-8-8-8-8-8-0-|-6-6-6-6-6-6-6-6-|-6-6-6-6-6-6-6-0-|
|------------------------|-----------------|-----------------|-----------------|
|------------------------|-----------------|-----------------|-----------------|

|-11-11-11-11-11-11-11-0-|-6-6-6-6-6-6-6-0-|-4-4-4-4-4-4-4-4-|-4-4-4-4-4-4-4-0-|
|-9--9--9--9--9--9--9--0-|-8-8-8-8-8-8-8-0-|-6-6-6-6-6-6-6-6-|-6-6-6-6-6-6-6-0-|
|------------------------|-----------------|-----------------|-----------------|
|------------------------|-----------------|-----------------|-----------------|

|-11-11-11-11-11-11-11-0-|-6-6-6-6-6-6-6-0-|-4-4-4-4-4-4-4-4-|-4-4-4-4-4-4-4-0-|
|-9--9--9--9--9--9--9--0-|-8-8-8-8-8-8-8-0-|-6-6-6-6-6-6-6-6-|-6-6-6-6-6-6-6-0-|
|------------------------|-----------------|-----------------|-----------------|
|------------------------|-----------------|-----------------|-----------------|

|-11-11-11-11-11-11-11-0-|-6-6-6-6-6-6-6-0-|-4-4-4-4-4-4-4-0-|-6-6-6-6-6-6-6-6-|
|-9--9--9--9--9--9--9--0-|-8-8-8-8-8-8-8-0-|-6-6-6-6-6-6-6-0-|-4-4-4-4-4-4-4-4-|
|------------------------|-----------------|-----------------|-----------------|
|------------------------|-----------------|-----------------|-----------------|

Pre-Chorus

|-----------------|-----------------|-----------------|-----------------|
|-----------------|-----------------|-----------------|-----------------|
|-2-2-2-2-2-2-2-2-|-4-4-4-4-4-4-4-4-|-----------------|-----------------|
|-----------------|-----------------|-4-4-4-4-4-4-4-4-|-0-0-0-0-0-0-0-0-|

|-----------------|-----------------|-----------------|-----------------|
|-----------------|-----------------|-----------------|-----------------|
|-2-2-2-2-2-2-2-2-|-4-4-4-4-4-4-4-4-|-----------------|-----------------|
|-----------------|-----------------|-4-4-4-4-4-4-4-4-|-0-0-0-0-0-0-0-0-|

Chorus

|-----------------|-----------------|-----------------|-----------------|
|-----------------|-----------------|-----------------|-----------------|
|-2-2-2-2-2-2-2---|-6-6-6-6-6-6-6---|-----------------|-----------------|
|---------------0-|---------------0-|-4-4-4-4-4-4-4-0-|-0-0-0-0-0-0-0-0-|

|-----------------|-----------------|-----------------|-----------------|
|-----------------|-----------------|-----------------|-----------------|
|-2-2-2-2-2-2-2---|-6-6-6-6-6-6-6---|-----------------|-----------------|
|---------------0-|---------------0-|-4-4-4-4-4-4-4-0-|-0-0-0-0-0-0-0-0-|

Verse 2

|-----------------|-----------------|-----------------|-----------------|
|-----------------|-----------------|-----------------|-----------------|
|--6----------6---|--4----------4---|--6--------------|-----------------|
|-------7---------|-------6---------|-------4------2//|/4---------------|

|-----------------|-----------------|-----------------|-----------------|
|-----------------|-----------------|-----------------|-----------------|
|--6----------6---|--4----------4---|--6--------------|-----------------|
|-------7---------|-------6---------|-------4------2//|/4---------------|

|-----------------|-----------------|-----------------|-----------------|
|-----------------|-----------------|-----------------|-----------------|
|--6----------6---|--4----------4---|--6--------------|-----------------|
|-------7---------|-------6---------|-------4------2//|/4---------------|

|-----------------|-----------------|-----------------|-----------------|
|-----------------|-----------------|-----------------|-----------------|
|--6----------6---|--4----------4---|--6--------------|-----------------|
|-------7---------|-------6---------|-------4------2//|/4---------------|

Interlude

|-----------------|-----------------|-----------------|-----------------|
|-----------------|-----------------|-----------------|-----------------|
|-2-2-2-2-2-2-2-2/|/4-4-4-4-4-4-4-4\|\2-2-2-2-2-2-2-2-|-2/6-6-6-6\2-2-2-|
|-----------------|-----------------|-----------------|-----------------|

|-----------------|-----------------|-----------------|-----------------|
|-----------------|-----------------|-----------------|-----------------|
|-2-2-2-2-2-2-2-2/|/4-4-4-4-4-4-4-4\|\2-2-2-2-2-2-2-2-|-2/6-6-6-6\2-2-2-|
|-----------------|-----------------|-----------------|-----------------|

Outro

|-----------------|-----------------|-----------------|-----------------|
|-----------------|-----------------|-----------------|-----------------|
|-----------------|-----------------|-----------------|-----------------|
|-2-2-2-2-2-2-2-2-|-2-2-2-2-2-2-2-2/|/4-4-4-4-4-4-4-4\|\0-0-0-0-0-0-0-0/|

End Note
|-----------------|-----------------|
|-----------------|-----------------|
|-2~~~~~~~~~~~~~~~|~-~--------------|
|-----------------|-----------------|


Intro
Verse
Pre-Chorus
Chorus
Intro
Verse 2
Pre-Chorus  x2
Chorus  x2
Interlude
Intro
-Pause-
Chorus  x2
Outro  x4
End Note


11. Easy Target

Intro:
G--------------------------------------|
D--------------------------------------|
A----------000---------------000-------|
E-22222222-----0000-22222222-----0000--|


G--------------------------------------|
D--------------------------------------|
A----------000---------------000-------|
E-22222222-----0000-22222222-----0000--|

Verse: (All her signals are....)
G--------------------------------------|
D--------------------------------------|
A----------000-----00-2224445~---------| Let note ring
E-22222200-----000---------------------|

G--------------------------------------|
D--------------------------------------|
A----------000-----00-2224445~---------| Let note ring
E-22222200-----000---------------------|

G--------------------------------------|
D--------------------------------------|
A----------000-----00-2224445555555555-|
E-22222200-----000---------------------|

G--------------------------------------|
D--------------------------------------|
A----------000-----00-2224445555555555-|
E-22222200-----000---------------------|

Chorus: (Holly's looking dry.......)
G--------------------------------------|
D--------------------------------------|
A----------000---------------000-------|
E-22222222-----0000-22222222-----0000--|


G--------------------------------------|
D--------------------------------------|
A----------000---------------000-------|
E-22222222-----0000-22222222-----0000--|

Verse: (shes got a mission.......)
G--------------------------------------|
D--------------------------------------|
A----------000-----00-2224445~---------| Let note ring
E-22222200-----000---------------------|

G--------------------------------------|
D--------------------------------------|
A----------000-----00-2224445~---------| Let note ring
E-22222200-----000---------------------|

G--------------------------------------|
D--------------------------------------|
A----------000-----00-2224445555555555-|
E-22222200-----000---------------------|

G--------------------------------------|
D--------------------------------------|
A----------000-----00-2224445555555555-|
E-22222200-----000---------------------|

Chorus: (Holly's looking dry.....)
G--------------------------------------|
D--------------------------------------|
A----------000---------------000-------|
E-22222222-----0000-22222222-----0000--|

G--------------------------------------|
D--------------------------------------|
A----------000---------------000-------|
E-22222222-----0000-22222222-----0000--|

Interlude (Holly let me out....)
G--------------------------------------|
D--------------------------------------|
A-55555555----------55555555-----------|
E----------55550000----------55550000--|

G--------------------------------------|
D--------------------------------------|
A-55555555----------55555555-----------|
E----------55550000----------55550000--|

outro
G---------------------------------------|
D---------------------------------------|
A----------0000---------------0000------|
E-22222222------0000-22222222------0000-|

G---------------------------------------|
D---------------------------------------|
A----------0000---------------0000------|
E-22222222------0000-22222222------0000-|

end on
E-2~-----------------------------------

12. All Of This

Mark plays On a acoustic-gitaar


Intro
e------------------------------------------------|
B------------------------------------------------|
G------------------------------------------------|
D--4/6/7/9\7--7/9/11--11/12\9-9\4--4/6/7/9\5--7--|
A--0----------0-------0-------0----0----------0--|
E--2/4/5/7\5--5/7/9---9-/10\7-7\2--2/4/5/7\5--5--|

Verse
e--------------------------------------------------------------------|
B--------------------------------------------------------------------|
G--------------------------------------------------------------------|
D--11-11-11-11-11-11-11-11-11-11-11-11-11-11-11-11-9-9-9-11-11-11-7--|
A--0--0--0--0--0--0--0--0--0--0--0--0--0--0--0--0--0-0-0-0--0--0--0--|
E--9--9--9--9--9--9--9--9--9--9--9--9--9--9--9--9--7-7-7-9--9--9--5--|

Chorus
e-------------------------------------------------------------------|
B-------------------------------------------------------------------|
G-------------------------------------------------------------------|
D--4-4-4-4-4-4-4-4-4-4-4-4-6-6-6-6-7-7-7-7-7-7-7-7-7-7-7-7-7-9-9-9--|
A--0-0-0-0-0-0-0-0-0-0-0-0-0-0-0-0-0-0-0-0-0-0-0-0-0-0-0-0-0-0-0-0--|
E--2-2-2-2-2-2-2-2-2-2-2-2-4-4-4-4-5-5-5-5-5-5-5-5-5-5-5-5-5-7-7-7--|

Interlude
Guitar 1
e----------------------------------------------------------|
B-----------0-0-------------------------0-0-----------0-0--|
G--2--2--2--1-1--2--2--2--2-2--2--2--2--1-1--2--2--2--4-4--|
D----------------------------------------------------------|
A----------------------------------------------------------|
E----------------------------------------------------------|

Guitar 2 (This part's really hard to hear, I'm not sure if this is single
notes or octaves, listen to it and decide which you think sounds more right)
e-------------------------------------------------------------------|
B-------------------------------------------------------------------|
G-------------------------------------------------------------------|
D-------------------------------------------------------------------|
A-------------------------------------------------------------------|
E--2-2-2-2-2-2-2-2-2-2-2-2-4-4-4-4-5-5-5-5-5-5-5-5-5-5-5-5-5-7-7-7--|


13. Here's Your Letter


Intro/Riff 1

G|--------------------------------------------------------------------------|
D|--------------------------------------------------------------------------|
A|--------------5555555-----------------------------------------------------|
E|-----2222222-------------5555555---7777777--------------------------------|

Verse:

G|--------------------------------------------------------------------------|
D|--------------------------------------------------------------------------|
A|-------------55--555---00--000--22-22h4h2---------------------------------|
E|---22--222----------------------------------------------------------------|

G|--------------------------------------------------------------------------|
D|--------------------------------------------------------------------------|
A|-------------55--555---0000000000000--------------------------------------|
E|---22--222----------------------------------------------------------------|

G|--------------------------------------------------------------------------|
D|--------------------------------------------------------------------------|
A|-------------55--555---00--000--22-22h4h2---------------------------------|
E|---22--222----------------------------------------------------------------|

G|--------------------------------------------------------------------------|
D|--------------------------------------------------------------------------|
A|-------------55--555---0>-------------------------------------------------|
E|---22--222----------------------------------------------------------------|

Chorus:

G|--------------------------------------------------------------------------|
D|--------------------------------------------------------------------------|
A|------------55555555555555------------------------------------------------|
E|---5-4-0-2----------------------------------------------------------------|

Chorus pt2:

G|--------------------------------------------------------------------------|
D|--------------------------------------------------------------------------|
A|------------5>------------------------------------------------------------|
E|---5-4-0-2----------------------------------------------------------------|

Riff 2

G|--------------------------------------------------------------------------|
D|--------------------------------------------------------------------------|
A|----------------5555555---------------------------------------------------|
E|---2222222--4-------------------------------------------------------------|

Riff 3

G|--------------------------------------------------------------------------|
D|--------------------------------------------------------------------------|
A|--------------------------------------------------------------------------|
E|---2222222--4444444--55555555555555---------------------------------------|

Song structure:

intro/riff 1 x2
verse x1
chorus x3
chorus pt.2: x1
riff 1 x2
Verse x1
chorus x5
riff 2 x2
riff 3 x2
riff 1 x2

End on E|-----2>------


| /  slide up
| \  slide down
| h  hammer-on
| p  pull-off
| ~  vibrato
| +  harmonic
| x  Mute note
============================================================================


14. I'm Lost Without You

Intro
G|---------------------------------------|
D|---------------------------------------|
A|-2/99999999-77777777----------22222222-|
E|---------------------55555555----------|

G|--------------------------------|
D|--------------------------------|
A|-2/99999999-77777777----------2~|
E|---------------------55555555---|


Chorus   x2
G|---------------------------|
D|---------------------------|
A|-4040---------4040---------|
E|------0044-45------0077-75-|


Verse
G|-------------------------------------|
D|-------------------------------------|
A|-99999999-77777777----------22222222-|
E|-------------------55555555----------|

G|------------------------------|
D|------------------------------|
A|-99999999-77777777----------2~|
E|-------------------55555555---|

Chorus x4

wait for piano to come in

Play chorus until drum solo
2 comments total.
0 reply
Troyrulz wrote on September 21 2004, 12:00 am

DAMN U TAB STEALER ! I DONT CARE IF U WANNA USE MY TABS IN UR ALBUM BASS TAB, BECAUSE ALL MINE ARE PERFECT, BUT U COULD AT LEAST GIMME CREDIT..... THATS NOT COOL MAN !

0 reply
Uncommonresults wrote on December 18 2004, 12:00 am

Yeah I thought some of these tabs all looked familiar... Don't take tabs unless you plan on giving people credit

I want to post or [tab]
guest
You may want to rate the tab now too:
select rating
Please do not post tabs as comments. Select "correction" instead!