Oops, an error
Loading. Please wait.

Blink 182 Bass Tab

ver3
ver3
More versions @911Tabs.com
13,640 views 15 this week
26 commentsread comments
1 2 3 4 5
accurate
x 23
Autoscroll
+/-
esc
set tempo
stop
Contributor
Difficulty
intermediate
Hey! There's an official Ultimate Guitar app which is ideal
for learning songs when you're away from computer. Get the app
WARNING: You are trying to view
                                    content from Ultimate-Guitar.com
                                    in an unauthorized application,
                                    which is prohibited.

                                    Please use an official Ultimate
                                    Guitar Tabs application for iPhone,
                                    iPad or Android to access legitimate
                                    chords, guitar, bass, and drum tabs
                                    from Ultimate-Guitar.com database.

                                    Type "ultimate guitar tabs" in Apple
                                    App Store's or Android Market's
                                    search to find the application.
----------------------------------------------------------------------------
                              BLINK 182 - Blink 182
----------------------------------------------------------------------------


1. FEELING THIS

Tabbed By : bloogy182


Tuning: Standard

Verse (they're 11's not 1's) (x4)
G|-------------|
D|-------------|
A|-7777-777-11-|
E|-------------|

Chorus (x2)
G|-------------------------------------|
D|-------------------------------------|
A|----------22222222-44444444-00000000-|
E|-00000000----------------------------|

Verse (they're 11's not 1's) (x6)
G|-------------|
D|-------------|
A|-7777-777-11-|
E|-------------|

Bridge (x2)
G|-------------------------------------|
D|-------------------------------------|
A|-77777777----------------------------|
E|----------77777777-99999999-55555555-|

Chorus (just play this until the end)
G|-------------------------------------|
D|-------------------------------------|
A|----------22222222-44444444-00000000-|
E|-00000000----------------------------|

2. OBVIOUS

~ = let ring

Intro (0:06) (x4)
G|-------------|
D|-------------|
A|-4-44--------|
E|------5-55-5-|

Verse (x2)
G|------------------------------------|
D|------------------------------------|
A|-4444444-44444444-------------------|
E|------------------55555555-55555555-|

Chorus (X2)
G|------------------------|
D|------------------------|
A|-7~-------------444-666-|
E|-0~-444-222-555---------|

Verse (x2)
G|------------------------------------|
D|------------------------------------|
A|-4444444-44444444-------------------|
E|------------------55555555-55555555-|

Chorus (X4)
G|------------------------|
D|------------------------|
A|-7~-------------444-666-|
E|-0~-444-222-555---------|

Bridge pt 1.(x1)
|----------------------------|
|----------------------------|
|-7~-------------------------|
|-0~-----------------------0-|

Bridge pt 2.(01:36) (x4)
|-----------------------|
|-----------------------|
|---------444-----------|
|-000-555-----111-00-11-|

Outro (x4)
|-----------------------------------|
|-----------------------------------|
|-7777777777777777-6666666666666666-|
|-----------------------------------|
then...
|------------------------------------------|
|------------------------------------------|
|-7777777777777777-00-22-66666666-44444444-|
|------------------------------------------|

End On
|----|
|-6~-|
|-4~-|
|----|

3. I MISS YOU

~ = let  ring

Intro (x2)
G|------------------------------|
D|------------------------------|
A|------------------------------|
E|-0-77~---0-66~---0-44~---0-66~|

Verse (just play it until the chorus cums in)
G|------------------------------|
D|------------------------------|
A|------------------------------|
E|-0-77~---0-66~---0-44~---0-66~|

Chorus (x2) (only play the last note on the 2nd repeat)
G|-------------------------------------------------------------------------|
D|-------------------------------------------------------------------------|
A|-22222222-44444444-66666666-99999999-77777777-77777777-77777777-77777777-|
E|-------------------------------------------------------------------------|
then...
G|------|
D|------|
A|--2~--|
E|------|

Verse (just play it until the chorus cums in)
G|------------------------------|
D|------------------------------|
A|------------------------------|
E|-0-77~---0-66~---0-44~---0-66~|

Chorus (x2) (only play the last note on the 2nd repeat)
G|-------------------------------------------------------------------------|
D|-------------------------------------------------------------------------|
A|-22222222-44444444-66666666-99999999-77777777-77777777-77777777-77777777-|
E|-------------------------------------------------------------------------|
then...
G|------|
D|------|
A|--2~--|
E|------|

Bridge
G|-------------------------------|
D|-------------------------------|
A|-------------------------------|
E|-0-44~---0-66~---0-77~---0-66~-|

Chorus (x8) (just fade it out gradually)
G|-------------------------------------------------------------------------|
D|-------------------------------------------------------------------------|
A|-22222222-44444444-66666666-99999999-77777777-77777777-77777777-77777777-|
E|-------------------------------------------------------------------------|
then...
G|------|
D|------|
A|--2~--|
E|------|
4. Violence

Nothing for the intro except guitar and drums.

Chorus (x2)
G|------------------------------------------------------------------------|
D|------------------------------------------------------------------------|
A|-22222222-22222222-44444444-4444444-------------------------------------|
E|------------------------------------44444444-44444444-66666666-66666666-|

Verse (nothing here as well)

Chorus (x2)
G|------------------------------------------------------------------------|
D|------------------------------------------------------------------------|
A|-22222222-22222222-44444444-4444444-------------------------------------|
E|------------------------------------44444444-44444444-66666666-66666666-|

Verse again (don't play anything)

Chorus (x2)
G|------------------------------------------------------------------------|
D|------------------------------------------------------------------------|
A|-22222222-22222222-44444444-4444444-------------------------------------|
E|------------------------------------44444444-44444444-66666666-66666666-|

Bridge (not sure how many times to play this but just play it until the final chorus)
G|-----4----4----6---6--------------------|
D|------------------------6-----6---2---2-|
A|---22---22---44---44--------------------|
E|---------------------44----44---00--00--|

Chorus (x2)
G|------------------------------------------------------------------------|
D|------------------------------------------------------------------------|
A|-22222222-22222222-44444444-4444444-------------------------------------|
E|------------------------------------44444444-44444444-66666666-66666666-|

5. STOCKHOLM SYNDROME

Intro (x2)
G|-------------------------------|
D|-------------------------------|
A|----------3333----2222----0000-|
E|-0000--------------------------|

Break (x1)
G|----------|
D|----------|
A|-333-3333-|
E|----------|

Chorus (x2) (on the last time don't play the last group of 8 notes, just skip to the 
bit)
G|-------------------------------------------------------------------------|
D|-------------------------------------------------------------------------|
A|-------------------33333333-33333333-------------------00000000----------|
E|-00000000-00000000-------------------33333333-33333333----------22222222-|

Break (x1)
G|----------|
D|----------|
A|-33333333-|
E|----------|

Interlude Pt. 1 (x2)
G|------------------------|
D|------------------------|
A|------------------------|
E|-0------3333-2-333333-0-|

Interlude Pt.2 (x2)
G|------------------------------------|
D|------------------------------------|
A|------------------------------------|
E|-3--0-5--0-7---0-3--3333-2-333333-0-|

Verse (x3) (on the last time just play the E3 once)
G|------------------------------------------------------------------|
D|------------------------------------------------------------------|
A|------------------------------------------------------------------|
E|-77777777-77777-88-7-88888888-88888888-77777777-77777777-55555555-|
then...
G|---------|
D|---------|
A|---------|
E|33333333-|

Pre-Chorus (x2)
G|-------------------------------------------------------------------------|
D|-------------------------------------------------------------------------|
A|-22222222-22222222-33333333-33333333-22222222-22222222-------------------|
E|-------------------------------------------------------55555555-33333333-|

Chorus (x2) (on the last time don't play the last group of 8 notes, just skip to the 
bit)
G|-------------------------------------------------------------------------|
D|-------------------------------------------------------------------------|
A|-------------------33333333-33333333-------------------00000000----------|
E|-00000000-00000000-------------------33333333-33333333----------22222222-|

End On
G|-----|
D|-----|
A|--2--|
E|-----|

6. DOWN

~ = let ring

Intro (x2)
G|-------------------------------|
D|-------------------------------|
A|-2-22-22-22-222--------11-1111-|
E|----------------2/4-44---------|

Verse (x4)
G|-------------------------------|
D|-------------------------------|
A|-2-22-22-22-222--------11-1111-|
E|----------------2/4-44---------|

Pre- Chorus (x1)
G|------|
D|------|
A|------|
E|--0~--|

Chorus (x1)
G|-------------------------------------------------------|
D|-------------------------------------------------------|
A|-------------------11111111-11111111-22222222-22222222-|
E|-44444444-44444444-------------------------------------|
then...
G|-------------------------------------------------------|
D|-------------------------------------------------------|
A|-------------------------------------11111111-11111111-|
E|-22222222-22222222-44444444-44444444-------------------|

Verse (x2) (cum in 1/2 way through)
G|-------------------------------|
D|-------------------------------|
A|-2-22-22-22-222--------11-1111-|
E|----------------2/4-44---------|

Pre- Chorus (x1)
G|------|
D|------|
A|------|
E|--0~--|

Chorus (x1)
G|-------------------------------------------------------|
D|-------------------------------------------------------|
A|-------------------11111111-11111111-22222222-22222222-|
E|-44444444-44444444-------------------------------------|
then...
G|-------------------------------------------------------|
D|-------------------------------------------------------|
A|-------------------------------------11111111-11111111-|
E|-22222222-22222222-44444444-44444444-------------------|

For the rest of the song just keep playing this;
G|------|
D|------|
A|--2~--|
E|------|

7. THE FALLEN INTERLUDE (i can't hear any bassline in this or guitars so im going to 
it)

8. GO

Intro (x2)
G|-------------------------------------|
D|-------------------------------------|
A|-33333333-33333333-------------------|
E|-------------------11111111-11111111-|

Verse (x2)
G|---------------------------------------|
D|---------------------------------------|
A|-33333333-3333-22-55-------------------|
E|---------------------11111111-11111111-|

Chorus (x2)
G|-------------------|
D|-------------------|
A|-00000000----------|
E|----------11111111-|

Intro (x4)
G|-------------------------------------|
D|-------------------------------------|
A|-33333333-33333333-------------------|
E|-------------------11111111-11111111-|

----------------------------------Pause (only Mark singing)-----------------

Chorus (x2)
G|-------------------|
D|-------------------|
A|-00000000----------|
E|----------11111111-|

Outro (x3)
G|----------------------------------------|
D|----------------------------------------|
A|-77777777-77777777-3333-5555-7777-888-7-|
E|----------------------------------------|

End On
G|-------------------|
D|-------------------|
A|-77777777-77777-3~-|
E|-------------------|

9. ASTHENIA

(an 'x' below a note denotes that the note should be muted)
Intro (x2)
G|-----------------------------------------|
D|-----------------------------------------|
A|-0-5555555-5-7777777-0-2222222-2-0000000-|
E|-----------------------------------------|

Verse (x4)
G|-------------------------------------|
D|-------------------------------------|
A|-55555555-44444444-22222222-44444444-|
E|-------------------------------------|

Pre-Chorus (x2)
G|----------------------------------------------------------------------|
D|-------------------5555-44444444-44444444-7777-55555555-55555555------|
A|-55555555-55555555-----------------------------------------------5555-|
E|----------------------------------------------------------------------|
                                                                   xxxx

Chorus (x1)
G|-------------------------------------------------------------------|
D|-------------------------------------------------------------------|
A|----------------------------44444444----------------------------4~-|
E|-22222222-33333333-55555555----------22222222-33333333-55555555----|

Intro (x2)
G|-----------------------------------------|
D|-----------------------------------------|
A|-0-5555555-5-7777777-0-2222222-2-0000000-|
E|-----------------------------------------|

Verse (x2)
G|-------------------------------------|
D|-------------------------------------|
A|-55555555-44444444-22222222-44444444-|
E|-------------------------------------|

Pre-Chorus (x2)
G|----------------------------------------------------------------------|
D|-------------------5555-44444444-44444444-7777-55555555-55555555------|
A|-55555555-55555555-----------------------------------------------5555-|
E|----------------------------------------------------------------------|
                                                                   xxxx

Chorus (x3)
G|-------------------------------------|
D|-------------------------------------|
A|----------------------------44444444-|
E|-22222222-33333333-55555555----------|
then...(x1)
G|-------------------------------|
D|-------------------------------|
A|----------------------------4~-|
E|-22222222-33333333-55555555----|

Bridge (x4)
G|-----------------------------------------------------------------|
D|-----------------------------------------------------------------|
A|-55555555-55555555-00000000-00000000-----------------------------|
E|-------------------------------------33333333-33333333-0000-3333-|
then...(x1)
G|----|
D|----|
A|-5~-|
E|----|

Chorus (x3)
G|-------------------------------------|
D|-------------------------------------|
A|----------------------------44444444-|
E|-22222222-33333333-55555555----------|
then...(x1)
G|-------------------------------|
D|-------------------------------|
A|----------------------------4~-|
E|-22222222-33333333-55555555----|

Outro (x1)
G|----------------------------------------------------------------------|
D|-------------------5555-44444444-44444444-7777-55555555-55555555------|
A|-55555555-55555555-----------------------------------------------5555-|
E|----------------------------------------------------------------------|
                                                                   xxxx
G|--------------------------------------------------|
D|-------------------5555-44444444-44444444-7777-5~-|
A|-55555555-55555555--------------------------------|
E|--------------------------------------------------|

10. ALWAYS

Intro (x2)
G|-44444444-66666666-88888888-44444444-|
D|-44444444-44444444-66666666-22222222-|
A|-------------------------------------|
E|-------------------------------------|

Verse 1 (x4) (play the whole thing 4x)
G|-11-11-11-11-11-11-11-11-11-11-11-11-11-11-11-11-10-10-10-10-10-10-10-10-|
D|--9--9--9--9--9--9--9--9--8--8--8--8--8--8--8--8--8--8--8--8--8--8--8--8-|
A|-------------------------------------------------------------------------|
E|-------------------------------------------------------------------------|
then...
G|8-8-8-8-8-8-8-8-|
D|6-6-6-6-6-6-6-6-|
A|----------------|
E|----------------|
then...(on the last time through, skip this bit and go straight to the coda)
G|-8-8-8-8-8-8-8-8-|
D|-6-6-6-6-6-6-6-6-|
A|-----------------|
E|-----------------|

Coda (x1)
G|-6-6-6-6-6-6-6-6-|
D|-4-4-4-4-4-4-4-4-|
A|-----------------|
E|-----------------|

Pre-Chorus (x2)
G|-------------------------------------|
D|-------------------------------------|
A|-22222222-44444444-------------------|
E|-------------------44444444-00000000-|

Chorus (x2)
G|-44444444-66666666-88888888-44444444-|
D|-44444444-44444444-66666666-22222222-|
A|-------------------------------------|
E|-------------------------------------|

Intro (x2)
G|-44444444-66666666-88888888-44444444-|
D|-44444444-44444444-66666666-22222222-|
A|-------------------------------------|
E|-------------------------------------|

Verse 2 (x4)
G|------------------------------|
D|------------------------------|
A|-6-----6--4-----4--6----------|
E|----7--------6--------4--2--4-|

Pre-Chorus (x4)
G|-------------------------------------|
D|-------------------------------------|
A|-22222222-44444444-------------------|
E|-------------------44444444-00000000-|

Chorus (x4)
G|-44444444-66666666-88888888-44444444-|
D|-44444444-44444444-66666666-22222222-|
A|-------------------------------------|
E|-------------------------------------|

Bridge (x2)
G|---------------------------------------|
D|---------------------------------------|
A|-22222222-44444444-22222222-2-666-2222-|
E|---------------------------------------|

Intro (x2)
G|-44444444-66666666-88888888-44444444-|
D|-44444444-44444444-66666666-22222222-|
A|-------------------------------------|
E|-------------------------------------|

---------------------------------Pause (tom only singing)----------------------------------

Chorus (x4)
G|-44444444-66666666-88888888-44444444-|
D|-44444444-44444444-66666666-22222222-|
A|-------------------------------------|
E|-------------------------------------|

Outro (x4)
G|-------------------------------------|
D|-------------------------------------|
A|-22222222-44444444-------------------|
E|-------------------44444444-00000000-|

11. EASY TARGET

Intro (x4)
G|--------------------|
D|--------------------|
A|----------000-------|
E|-22222222-----00000-|

Verse Riff 1 (x4)
G|------------------------------|
D|------------------------------|
A|-44444444-44444444-222-444-0~-|
E|------------------------------|

Chorus (x4)
G|--------------------|
D|--------------------|
A|----------000-------|
E|-22222222-----00000-|

Verse Riff 1 (x2)
G|------------------------------|
D|------------------------------|
A|-44444444-44444444-222-444-0~-|
E|------------------------------|

Verse Riff 2 (x2)
G|--------------------------------|
D|--------------------------------|
A|-4444-0000-4444-0000-222-222-5~-|
E|--------------------------------|

Chorus (x4)
G|--------------------|
D|--------------------|
A|----------000-------|
E|-22222222-----00000-|

Bridge Pt. 1 (x3)
G|-------------------|
D|-------------------|
A|-55555555-77777777-|
E|-------------------|

Bridge Pt. 2 (x1)
G|-------------------|
D|-------------------|
A|-55555555-44444444-|
E|-------------------|

Intro (x3)
G|--------------------|
D|--------------------|
A|----------000-------|
E|-22222222-----00000-|

End On
G|------|
D|------|
A|------|
E|--2~--|

12. ALL OF THIS

~ = let ring

Intro (x2)
G|-----|
D|-----|
A|--0--|
E|-----|

Verse (x2)
G|-------------------------------|
D|-------------------------------|
A|------------22245~-------------|
E|-2220-2-0-2--------------------|
then...(x2)
G|-------------------------------|
D|-------------------------------|
A|---------00----00--0-02224445~-|
E|-222000-----00----0-0----------|

Chorus (x2)
G|----------------------------------|
D|----------------------------------|
A|-999999999999777700000000-0-0-----|
E|----------------------------------|
then (x2)
G|-----|
D|-----|
A|--0--|
E|-----|

Verse (x2)
G|-------------------------------|
D|-------------------------------|
A|------------22245~-------------|
E|-2220-2-0-2--------------------|
then...(x2)
G-------------------------------|
D-------------------------------|
A---------00----00--0-02224445~-|
E-222000-----00----0-0----------|

Chorus (x2)
G|----------------------------------|
D|----------------------------------|
A|-999999999999777700000000-0-0-----|
E|----------------------------------|
then...(x4)
G|-------------------------------|
D|-------------------------------|
A|-55555555-5-0------------------|
E|--------------5-0--------------|

Chorus (x4)
G|-----------------------------|
D|-----------------------------|
A|-999999-5-0------------------|
E|------------5-0--------------|
then...(x4)
G|-------------------------------|
D|-------------------------------|
A|-55555555-5-0------------------|
E|--------------5-0--------------|
then...(x2)
G|-------------------------------|
D|-------------------------------|
A|---------00----00--0-02224445~-|
E|-222000-----00----0-0----------|

Verse (x2)
G|-------------------------------|
D|-------------------------------|
A|---------00----00--0-02224445~-|
E|-222000-----00----0-0----------|
then...(x2)
G|-------------------------------|
D|-------------------------------|
A|------------22245~-------------|
E|-2220-2-0-2--------------------|

13. HERE'S YOUR LETTER

Intro (x1)
G|-------------------------------------------------------------------------|
D|-------------------------------------------------------------------------|
A|----------55555555-00000000-22222222----------55555555-00000000-00000000-|
E|-22222222----------------------------22222222----------------------------|

Verse (x2) (on the last repeat only play the last A0 once)
G|--------------------------------------------------------------------------|
D|--------------------------------------------------------------------------|
A|----------555-55-5-000-00-0-222-22-2-----------555-55-5-00000000-00000000-|
E|-222-22-2----------------------------222-22-2-----------------------------|

Chorus (x2)
G|------------------------------|
D|------------------------------|
A|-------------------5555555555-|
E|-555-444-000-222222-----------|

Verse (x2) (on the last repeat only play the last A0 once)
G|--------------------------------------------------------------------------|
D|--------------------------------------------------------------------------|
A|----------555-55-5-000-00-0-222-22-2-----------555-55-5-00000000-00000000-|
E|-222-22-2----------------------------222-22-2-----------------------------|

Chorus (x4)
G|------------------------------|
D|------------------------------|
A|-------------------5555555555-|
E|-555-444-000-222222-----------|

Bridge Pt. 1 (x2)
G|-----------------------------------|
D|-----------------------------------|
A|--------------------55555555-5555--|
E|-55555555-5555555-4----------------|

Bridge Pt. 2 (x2)
G|-------------------------------------------------------------------------|
D|-------------------------------------------------------------------------|
A|-------------------------------------------------------------------------|
E|-22222222-22222222-44444444-44444444-55555555-55555555-55555555-55555555-|

Chorus (x4)
G|------------------------------|
D|------------------------------|
A|-------------------5555555555-|
E|-555-444-000-222222-----------|

Outro (x1)
G|-------------------------------------------------------------------------|
D|-------------------------------------------------------------------------|
A|----------55555555-00000000-22222222----------55555555-00000000-00000000-|
E|-22222222----------------------------22222222----------------------------|

End On
G|------|
D|------|
A|--2~--|
E|------|

14. I'M LOST WITHOUT YOU

Intro (0:38) (x1)
G|---------------------------------------|
D|---------------------------------------|
A|-2/99999999-77777777----------22222222-|
E|---------------------55555555----------|

G|--------------------------------|
D|--------------------------------|
A|-2/99999999-77777777----------2~|
E|---------------------55555555---|


Chorus   (x2)
G|---------------------------|
D|---------------------------|
A|-4040---------4040---------|
E|------0044-45------0077-75-|


Verse (x1)
G|-------------------------------------|
D|-------------------------------------|
A|-99999999-77777777----------22222222-|
E|-------------------55555555----------|

G|------------------------------|
D|------------------------------|
A|-99999999-77777777----------2~|
E|-------------------55555555---|

Chorus (x4)
G|---------------------------|
D|---------------------------|
A|-4040---------4040---------|
E|------0044-45------0077-75-|

Then wait for piano to come in.

Then play chorus until drum solo.

15. NOT NOW

~ = let ring

Intro (0:50) (x4)
G|------------------------------------|
D|------------------------------------|
A|-222-5-55-0-00-0000-----------------|
E|-------------------3-33332-22222----|

Verse (x13) (play with cd for exact amount of times. next part starts at 1:26)
G|------------------------------------|
D|------------------------------------|
A|-55555555---------------------------|
E|------------------------------------|

Pre-Chorus (X2)
G|------------------------------------|
D|------------------------------------|
A|-555555555555555/7-777777777777777--|
E|------------------------------------|

G|------------------------------------|
D|------------------------------------|
A|------------------------------------|
E|-2222222222222222/3-3333333333333333|

Chorus (X1)
G|------------------------------------|
D|------------------------------------|
A|-5555555555555555-0000000000000000--|
E|------------------------------------|

G|------------------------------------|
D|------------------------------------|
A|-2222222222222222-------------------|
E|------------------33333333-33333333-|

Verse (X6)
G|------------------------------------|
D|------------------------------------|
A|-55555555---------------------------|
E|------------------------------------|

Chorus (2:20) (X1)
G|------------------------------------|
D|------------------------------------|
A|-5555555555555555-0000000000000000--|
E|------------------------------------|

G|--------------------------00000000--|
D|------------------------------------|
A|-2222222222222222-------------------|
E|------------------33333333----------|

G|------------------------------------|
D|------------------------------------|
A|-5555555555555555-0000000000000000--|
E|------------------------------------|

G|------------------22222222-00000000-|
D|------------------------------------|
A|-2222222222222222-------------------|
E|------------------------------------|

Bass Solo (You Have to play with the song for timing) (X4)
G|------------------------------------|
D|------------------------------------|
A|-222-5-55-0-00-0000-----------------|
E|-------------------3-33332-22222----|


Chorus (x4)
G|------------------------------------|
D|------------------------------------|
A|-5555555555555555-0000000000000000--|
E|------------------------------------|

G|--------------------------00000000--|
D|------------------------------------|
A|-2222222222222222-------------------|
E|------------------33333333----------|

G|------------------------------------|
D|------------------------------------|
A|-5555555555555555-0000000000000000--|
E|------------------------------------|

G|------------------22222222-00000000-|
D|------------------------------------|
A|-2222222222222222-------------------|
E|------------------------------------|

Outro (X4)
G|------------------------------------|
D|------------------------------------|
A|-222-5-55-0-00-0000-----------------|
E|-------------------3-33332-22222----|

G|------------------------------------|
D|------------------------------------|
A|-2-5-0~-----------------------------|
E|------------------------------------|

16. ANTHEM PT. 2 (LIVE)

~ = let ring

Pre-Intro (x2)
G|------|
D|------|
A|-3333-|
E|------|

Intro (x6)
G|-------------------------------------|
D|----------------------------33333333-|
A|-33333333-55555555-00000000----------|
E|-------------------------------------|

Verse (x6) (on the second time play the E1 just once)
G|-------------------------------------|
D|-------------------------------------|
A|-33333333-33333333-00000000----------|
E|----------------------------11111111-|

Break (x1)
G|-----------------|
D|-----------------|
A|---7-----5-----3-|
E|-5---5-3---3-1---|

Verse (x6) (on the second time play the E1 just once)
G|-------------------------------------|
D|-------------------------------------|
A|-33333333-33333333-00000000----------|
E|----------------------------11111111-|

Break (x1)
G|-----------------|
D|-----------------|
A|---7-----5-----3-|
E|-5---5-3---3-1---|

Chorus Pt. 1 (x2)
G|--------------------------------------|
D|--------------------------------------|
A|--------------------33333333----------|
E|-00000000-111111111----------33333333-|

Chorus Pt. 2 (x2)
G|-------------------------------------|
D|-------------------------------------|
A|-00000000----------33333333----------|
E|----------11111111----------33333333-|
then...(x1)
G|------------|
D|------------|
A|-00000000---|
E|----------1-|

Verse (x6) (on the second time play the E1 just once)
G|-------------------------------------|
D|-------------------------------------|
A|-33333333-33333333-00000000----------|
E|----------------------------11111111-|

Break (x1)
G|-----------------|
D|-----------------|
A|---7-----5-----3-|
E|-5---5-3---3-1---|

Chorus Pt. 1 (x2)
G|--------------------------------------|
D|--------------------------------------|
A|--------------------33333333----------|
E|-00000000-111111111----------33333333-|

Chorus Pt. 2 (x2)
G|-------------------------------------|
D|-------------------------------------|
A|-00000000----------33333333----------|
E|----------11111111----------33333333-|
then...(x1)
G|------------|
D|------------|
A|-00000000---|
E|----------1-|

Bridge Pt. 1 (x4)
G|-------------------------------------|
D|-------------------------------------|
A|-33333333-33333333-00000000----------|
E|----------------------------11111111-|

Bridge Pt. 2 (x7)
G|-17----|
D|----17-|
A|-------|
E|-------|

Chorus Pt. 1 (x2)
G|--------------------------------------|
D|--------------------------------------|
A|--------------------33333333----------|
E|-00000000-111111111----------33333333-|

Chorus Pt. 2 (x2)
G|-------------------------------------|
D|-------------------------------------|
A|-00000000----------33333333----------|
E|----------11111111----------33333333-|
then...(x1)
G|------------|
D|------------|
A|-00000000---|
E|----------1-|

Outro (x4) (on the last time don't play the last 8 D3's, just skip to the end note)
G|-------------------------------------|
D|----------------------------33333333-|
A|-33333333-55555555-00000000----------|
E|-------------------------------------|

End On
G|------|
D|------|
A|------|
E|--1~--|

And that's it. iv'e checked this through soo many times that its probably about 99% 
Plz rate. Thnx!
comments
print report bad tab
26 comments total. Showing first comments.
0 reply
crfowler_09 wrote on May 1 2006, 05:52 pm

well done. i especially like the miss you tab, good show.

0 reply
penis_head182 wrote on May 14 2006, 12:48 pm

The fallen interlude is

g|--------------------------------------------------------|
d|--------------------------------------------------------|
a|0-0-0-0-0-5-0--0-0-0-0-0--0-0-0-0-0-5-0--0-0-0-0-0---0-0|
E|---------------------------------------------------1----|

great tab!

0 reply
penis_head182 wrote on May 14 2006, 12:49 pm

damn i messed up

I want to post or [tab]
guest
You may want to rate the tab now too:
select rating
Please do not post tabs as comments. Select "correction" instead!