Oops, an error
Loading. Please wait.

Blink 182 Tab

ver3
ver3
More versions @911Tabs.com
39,500 views 45 this week
15 commentsread comments
1 2 3 4 5
accurate
x 21
add to favorites launch autoscroll
font size
0
reset
Autoscroll
+/-
esc
set tempo
stop
Contributor
WARNING: You are trying to view
                                    content from Ultimate-Guitar.com
                                    in an unauthorized application,
                                    which is prohibited.

                                    Please use an official Ultimate
                                    Guitar Tabs application for iPhone,
                                    iPad or Android to access legitimate
                                    chords, guitar, bass, and drum tabs
                                    from Ultimate-Guitar.com database.

                                    Type "ultimate guitar tabs" in Apple
                                    App Store's or Android Market's
                                    search to find the application.
Band: Blink 182
Album: Blink 182/Untitled
Tabber: RJ


1)Feeling This

Intro x2 (dist.)
e|-------------------------------------------------------------------------|
B|-------------------------------------------------------------------------|
G|---9-/-7---7-7-------7-/-11----------------------------------------------|
D|---x-/-----x-x-------x---x-----------------------------------------------|
A|---7-/-5---5-5-5-----5-/-9---0-------------------------------------------|
E|---------------0-------------0-------------------------------------------|

Verse x8
e|-------------------------------------------------------------------------|
B|-------------------------------------------------------------------------|
G|---9-/-7---7-7-------7-/-11----------------------------------------------|
D|---x-/-----x-x-------x---x-----------------------------------------------|
A|---7-/-5---5-5-5-----5-/-9---0-------------------------------------------|
E|---------------0-------------0-------------------------------------------|

Chorus x2
e|-------------------------------------------------------------------------|
B|-------------------------------------------------------------------------|
G|-------------------------------------------------------------------------|
D|-9--9-9-9-9-9-/-4--4-4-4-4-4-4--6-6-6-6-6-6----7-7-7-7-7-7-7-------------|
A|-7--7-7-7-7-7-/-2--2-2-2-2-2-2--4-4-4-4-4-4-0--7-7-7-7-7-7-7-------------|
E|-9--9-9-9-9-9-/-4--4-4-4-4-4-4--6-6-6-6-6-6-0--7-7-7-7-7-7-7-------------|
                                              
Interlude
e|-------------------------------------------------------------------------|
B|-------------------------------------------------------------------------|
G|-7--7-7-7-7-7-7-7/9--9-9-9-9-9-9-9/11-11-11-11-11-11/12-12-12-12-12-12-12|
D|-x--x-x-x-x-x-x-x----x-x-x-x-x-x-x----x--x--x--x--x--x--x--x--xx-x--x--x-|
A|-5--5-5-5-5-5-5-5/7--7-7-7-7-7-7-7/9--9--9--9--9--9-/10-10-10-10-10-10-10|
E|-------------------------------------------------------------------------|
                                                       
Verse x6
e|-------------------------------------------------------------------------|
B|-------------------------------------------------------------------------|
G|---9-/-7---7-7-------7-/-11----------------------------------------------|
D|---x-/-----x-x-------x---x-----------------------------------------------|
A|---7-/-5---5-5-5-----5-/-9---0-------------------------------------------|
E|---------------0-------------0-------------------------------------------|


Bridge: No Guitar for first 8 measures, then this:
*P.M All(Guitar 1)
e|-------------------------------------------------------------------------|
B|-------------------------------------------------------------------------|
G|-------------------------------------------------------------------------|
D|-----4---4-------------------------4---4---------------------------------|
A|-5-5---5---5-5-5-5-5-5-5-7-7-7-5-5---5---5-5-6-7-7-7---------------------|
E|-------------------------------------------------------------------------|
P.M all(Guitar 2 or bass) play same time as this^
e|-------------------------------------------------------------------------|
B|-------------------------------------------------------------------------|
G|-------------------------------------------------------------------------|
D|-------------------------------------------------------------------------|
A|--5-5-5-5-5-5-5-5-0-0-0-0-0-0-0-0-2-2-2-2-2-2-2-2------------------------|
E|-------------------------------------------------3-3-3-3-3-3-3-3---------|

*P.M All(Guitar 1)
e|-------------------------------------------------------------------------|
B|-------------------------------------------------------------------------|
G|-------------------------------------------------------------------------|
D|-----4---4-------------------------4---4---------------------------------|
A|-5-5---5---5-5-5-5-5-5-5-7-7-7-5-5---5---5-5-5-5-3-----------------------|
E|-------------------------------------------------------------------------|
P.M all(Guitar 2 or bass) play same time as this^
e|-------------------------------------------------------------------------|
B|-------------------------------------------------------------------------|
G|-------------------------------------------------------------------------|
D|-------------------------------------------------------------------------|
A|--5-5-5-5-5-5-5-5-0-0-0-0-0-0-0-0-2-2-2-2-2-2-2-2------------------------|
E|-------------------------------------------------3-----------------------|

Outro(Fade out)x9
e|-------------------------------------------------------------------------|
B|-------------------------------------------------------------------------|
G|-7-----------------------------------------------------------------------|
D|-7-7-7-7-7-7-7-----------------------------------------------------------|
A|-5-5-5-5-5-5-5-0-7-7-7-7-7-7-7---9-9-9-9-9-9-9---5-5-5-5-5-5-5-5---------|
E|-----------------5-5-5-5-5-5-5-0-7-7-7-7-7-7-7-7-3-3-3-3-3-3-3-3---------|

2) Obvious
Tune down 1 1/2 steps (C#,F#,B,E,G#,C#)

Intro (dist.)x4
e|-------------------------------------------------------------------------|
B|-------------------------------------------------------------------------|
G|-------------------------------------------------------------------------|
D|--5---5--5-5----5-5------5-----------------------------------------------|
A|--2---2--2-3----3-3------3-----------------------------------------------|
E|--0---0--0-3----3-3------3-----------------------------------------------|


Verse " I saw you again and again and again..."
e|-------------------------------------------------------------------------|
B|-------------------------------------------------------------------------|
G|-------------------------------------------------------------------------|
D|---2-2-2-2-2-2-2-2----5-5-5-5-5-5-5-5----x2------------------------------|
A|---2-2-2-2-2-2-2-2----3-3-3-3-3-3-3-3------------------------------------|
E|---0-0-0-0-0-0-0-0-------------------------------------------------------|

Chorus (dist.)
e|-------------------------------------------------------------------------|
B|-------------------------------------------------------------------------|
G|-------------------------------------------------------------------------|
D|-------------------------------------------------------------------------|
A|------2-2-2-0-0-0-3-3-3--------------------------------------------------|
E|--3~--------------------0-0-0-2-2-2--3-3-3-3-3-3-3-3-3-3-3-3-3-3-3-------|

e|-------------------------------------------------------------------------|
B|-------------------------------------------------------------------------|
G|-------------------------------------------------------------------------|
D|-------------------------------------------------------------------------|
A|--2-2-2-0-0-0-3-3-3------------------------------------------------------|
E|-------------------0-0-0-2-2-2-2-----------------------------------------|

Interlude x2
e|-------------------------------------------------------------------------|
B|-------------------------------------------------------------------------|
G|-------------------------------------------------------------------------|
D|-------------------------5~----------------------------------------------|
A|-------------------------2~----------------------------------------------|
E|-------------------------0~----------------------------------------------|


Interlude part 2 (Treble High Bass Low and lots of Gain)  x2
e|-------------------------------------------------------------------------|
B|-------------------------------------------------------------------------|
G|-12-12-12-----------9-9-9-13-13-13-13-13-13------------------------------|
D|-12-12-12-10-10-10--9-9-9-13-13-13-13-13-13------------------------------|
A|-10-10-10-10-10-10--7-7-7-11-11-11-11-11-11------------------------------|
E|-----------8--8--8-------------------------------------------------------|


Interlude part 4 x4 DISTORTION!!AND VOLUME!!
e|-------------------------------------------------------------------------|
B|-------------------------------------------------------------------------|
G|----555-----------55-----------------------------------------------------|
D|555-555------666--55-----------------------------------------------------|
A|555-333-222--666--33--666------------------------------------------------|
E|333-----000--444------444------------------------------------------------|

Bridge Guitar 1(dist) "-Saw you again and again and again-"
Play this chord till and of song then hit second chord
       /
e|-------------------------------------------------------------------------|
B|-------------------------------------------------------------------------|
G|-----12------------------------------------------------------------------|
D|-----x----------------5~-------------------------------------------------|
A|-----10---------------2~-------------------------------------------------|
E|----------------------0~-------------------------------------------------|
Guitar 2
e|-------------------------------------------------------------------------|
B|-------------------------------------------------------------------------|
G|-------------------------------------------------------------------------|
D|-----5-5-5-5-5-5-5-5-------------------5-5-5-5-5-5-5-5-5-5-5-5-5-5-5-5---|
A|-----5-5-5-5-5-5-5-5--5-5-5-5-5-5-5-5--3-3-3-3-3-3-3-3-3-3-3-3-3-3-3-3---|
E|-----3-3-3-3-3-3-3-3--2-2-2-2-2-2-2-2------------------------------------|


3) I Miss You
Acoutic Guitar tuned down 1 1/2 steps (C#,F#,B,E,G#,C#)

Intro x8
e|-------------------------------------------------------------------------|
B|-------------------------------------------------------------------------|
G|-------------------------------------------------------------------------|
D|--0-0-0---0-0------------------------------------------------------------|
A|--5-5-5-/-9-9------------------------------------------------------------|
E|-------------------------------------------------------------------------|

Piano bit(goes along with the bass before each guitar ^intro riff)
e|-------------------------------------------------------------------------|
B|---10-------10-------10---10---------------------------------------------|
G|-------------------------------------------------------------------------|
D|-12------11--------9----11-----------------------------------------------|
A|-------------------------------------------------------------------------|
E|-------------------------------------------------------------------------|

Verse: No Guitar (until mark sings  "Where you can always find me")
then play this 4 times
e|-------------------------------------------------------------------------|
B|-------------------------------------------------------------------------|
G|-------------------------------------------------------------------------|
D|----0-0-0--0-0-----------------------------------------------------------|
A|----5-5-5/-9-9-----------------------------------------------------------|
E|-------------------------------------------------------------------------|

Chorus
Guitar 1
e|---------------------------------------------------------------------------|
B|---------------------------------------------------------------------------|
G|--7-7--7-7-7-7--7-7-7-7-7-7-7-76-6-6-6-6-6--4-4-4-4-4-6-66666-7-7777777----|
D|--0-0--0-0-0-0--0-0-0-0-0-0-0-0-0-0-0-0-0-0--0-0-0-0-0-0-00000-0-5555555---|
A|--5-5--5-5-5-5--5-5-5-5-5-5-5-54-4-4-4-4-4--2-2-2-2-2-4-44444-5-5555555----|
E|---------------------------------------------------------------------------|

Guitar 2(some type of horn or organ) play with this^
e|-------------------------------------------------------------------------|
B|-------------------------------------------------------------------------|
G|---------------------------4~----6~----7~--------------------------------|
D|-------------4~-----7~---------------------------------------------------|
A|-5~---7~-----------------------------------------------------------------|
E|-------------------------------------------------------------------------|

Verse: just drums until he sings " i need somebody and always" play this
until the chorus
e|-------------------------------------------------------------------------|
B|-------------------------------------------------------------------------|
G|-------------------------------------------------------------------------|
D|----0-0-0--0-0-----------------------------------------------------------|
A|----5-5-5/-9-9-----------------------------------------------------------|
E|-------------------------------------------------------------------------|


Chorus
Guitar 1
e|-------------------------------------------------------------------------|
B|-------------------------------------------------------------------------|
G|--7-7--7-7-7-7--7-7-7-7-7-7-7-76-6-6-6-6-6--4-4-4-4-4-6-66666-7-7777777--|
D|--0-0--0-0-0-0--0-0-0-0-0-0-0-0-0-0-0-0-0-0--0-0-0-0-0-0-00000-0-5555555-|
A|--5-5--5-5-5-5--5-5-5-5-5-5-5-54-4-4-4-4-4--2-2-2-2-2-4-44444-5-5555555--|
E|-------------------------------------------------------------------------|

Guitar 2(some type of horn or organ) play with this^
e|-------------------------------------------------------------------------|
B|-------------------------------------------------------------------------|
G|---------------------------4~----6~----7~--------------------------------|
D|-------------4~-----7~---------------------------------------------------|
A|-5~---7~-----------------------------------------------------------------|
E|-------------------------------------------------------------------------|

Interlude (same as intro)
Guitar 1 x8
e|-------------------------------------------------------------------------|
B|-------------------------------------------------------------------------|
G|-------------------------------------------------------------------------|
D|----0-0-0--0-0-----------------------------------------------------------|
A|----5-5-5/-9-9-----------------------------------------------------------|
E|-------------------------------------------------------------------------|

Guitar 2(some type of bell or high piano)play alongwith bass
right before the riff above
e|---20-------22-------23-----22-----20------------------------------------|
B|---20-------20-------23-----20-----20------------------------------------|
G|-------------------------------------------------------------------------|
D|-------------------------------------------------------------------------|
A|-------------------------------------------------------------------------|
E|-------------------------------------------------------------------------|

Chorus
Guitar 1
e|---------------------------------------------------------------------------|
B|---------------------------------------------------------------------------|
G|--7-7--7-7-7-7--7-7-7-7-7-7-7-76-6-6-6-6-6--4-4-4-4-4-6-66666-7-7777777----|
D|--0-0--0-0-0-0--0-0-0-0-0-0-0-0-0-0-0-0-0-0--0-0-0-0-0-0-00000-0-5555555---|
A|--5-5--5-5-5-5--5-5-5-5-5-5-5-54-4-4-4-4-4--2-2-2-2-2-4-44444-5-5555555----|
E|---------------------------------------------------------------------------|

Guitar 2 (piano)part 1 x32 with this^
e|---23--------------------------------------------------------------------|
B|---23--------------------------------------------------------------------|
G|-------------------------------------------------------------------------|
D|-------------------------------------------------------------------------|
A|-------------------------------------------------------------------------|
E|-------------------------------------------------------------------------|

Guitar 2 (piano) part 2 x2 and just fade out
e|-------------------------------------------------------------------------|
B|--23-20-23-20-23-20-23-20-23-20-23-21-23-20------------------------------|
G|--------------------------------------------20---------------------------|
D|-------------------------------------------------------------------------|
A|-------------------------------------------------------------------------|
E|-------------------------------------------------------------------------|


4) Violence
Tuning 1 1/2 steps (C#,F#,B,E,G#,C#)

Intro
Guitar 1(light dist.) x8
e|-------------------------------------------------------------------------|
B|-------------------------------------------------------------------------|
G|-------------------------------------------------------------------------|
D|-------------------------------------------------------------------------|
A|---5^------5-5------5^---------5^----------------------------------------|
E|-------------------------------------------------------------------------|

Guitar 2 (dist.)play 16 times after 4 times of that^
e|-------------------------------------------------------------------------|
B|-------------------------------------------------------------------------|
G|----7--7-----7-7---------------------------------------------------------|
D|----x--x-----x-x---------------------------------------------------------|
A|----5--5-----5-5---------------------------------------------------------|
E|-------------------------------------------------------------------------|

Then this:
e|-------------------------------------------------------------------------|
B|-------------------------------------------------------------------------|
G|-7--7-----7-7--7-7-7-7---9-9-9--9--9-9-9---4--4-4-4-4-4-4-4-6-6-6-6-6-6-6|
D|-x--x-----x-x--7-7-7-7---x-x-x--x--x-x-x---x--x-x-x-x-x-x-x-x-x-x-x-x-x-x|
A|-5--5-----5-5--5-5-5-5-0-7-7-7--7--7-7-7-0-2--2-2-2-2-2-2-2-4-4-4-4-4-4-4|
E|-------------------------------------------------------------------------|


Verse: no guitar

Chorus x2
e|-------------------------------------------------------------------------|
B|-------------------------------------------------------------------------|
G|-7--7-----7-7--7-7-7-7---9-9-9--9--9-9-9---4--4-4-4-4-4-4-4-6-6-6-6-6-6-6|
D|-x--x-----x-x--7-7-7-7---x-x-x--x--x-x-x---x--x-x-x-x-x-x-x-x-x-x-x-x-x-x|
A|-5--5-----5-5--5-5-5-5-0-7-7-7--7--7-7-7-0-2--2-2-2-2-2-2-2-4-4-4-4-4-4-4|
E|-------------------------------------------------------------------------|

Verse: no guitar

Chorus x2
e|-------------------------------------------------------------------------|
B|-------------------------------------------------------------------------|
G|-7--7-----7-7--7-7-7-7---9-9-9--9--9-9-9---4--4-4-4-4-4-4-4-6-6-6-6-6-6-6|
D|-x--x-----x-x--7-7-7-7---x-x-x--x--x-x-x---x--x-x-x-x-x-x-x-x-x-x-x-x-x-x|
A|-5--5-----5-5--5-5-5-5-0-7-7-7--7--7-7-7-0-2--2-2-2-2-2-2-2-4-4-4-4-4-4-4|
E|-------------------------------------------------------------------------|

Bridge (start when he sings "and after...")
Guitar 1
e|-------------------------------------------------------------------------|
B|-------------------------------------------------------------------------|
G|--7~---------------------------------------------------------------------|
D|--x----------------------------------------------------------------------|
A|--5~---------------------------------------------------------------------|
E|-------------------------------------------------------------------------|
Guitar 2 (bass)
e|-------------------------------------------------------------------------|
B|-------------------------------------------------------------------------|
G|-------------------------------------------------------------------------|
D|-------------------------------------------------------------------------|
A|------9-----9---9------7-----7---7------5-----5---5------5-----5---5-----|
E|--7-7---7-7---7----5-5---5-5---5----2-2---2-2---2----3-3---3-3---3-------|

Chorus x2 (add reverb)
e|-------------------------------------------------------------------------|
B|-------------------------------------------------------------------------|
G|-7--7-----7-7--7-7-7-7---9-9-9--9--9-9-9---4--4-4-4-4-4-4-4-6-6-6-6-6-6-6|
D|-x--x-----x-x--7-7-7-7---x-x-x--x--x-x-x---x--x-x-x-x-x-x-x-x-x-x-x-x-x-x|
A|-5--5-----5-5--5-5-5-5-0-7-7-7--7--7-7-7-0-2--2-2-2-2-2-2-2-4-4-4-4-4-4-4|
E|-------------------------------------------------------------------------|


Outro same as intro just fade out
e|-------------------------------------------------------------------------|
B|-------------------------------------------------------------------------|
G|-------------------------------------------------------------------------|
D|-------------------------------------------------------------------------|
A|---5^------5-5------5^---------5^----------------------------------------|
E|-------------------------------------------------------------------------|

5) Stockholm Syndrome
Standard Tuning

Guitar 1 (piano)x 7
e|--3--5-----7-------3--3-----2------------7-------------------------------|
B|--0------------------------------8--10-------8----8---7------------------|
G|--0----------------------------------------------------------------------|
D|-------------------------------------------------------------------------|
A|-------------------------------------------------------------------------|
E|--3------------------------------8---------------------------------------|

Then this kicks in which leads to the rest of the song
Guitar 1 (dist.)
e|-------------------------------------------------------------------------|
B|--------------------0~---------------------------------------------------|
G|-0000---------------0~---------------------------------------------------|
D|-2222----------------------------------------2222------------------------|
A|-2222---------3333---------5555--------------0000------------------------|
E|-0000---------3333---------2222------------------------------------------|
Guitar 2(play between riffs^)
e|-------------------------------------------------------------------------|
B|------------------------------------------0~--------------0~-------------|
G|-----------------------------------7-0-0------------7-0-0----------------|
D|-------------------------------------------------------------------------|
A|-------------------------------------------------------------------------|
E|-------------------------------------------------------------------------|


Guitar 1 (dist)
e|-------------------------------------------------------------------------|
B|-------------------------------------------------------------------------|
G|-----------------------------5555----------------------------------------|
D|-----------------------------5555----------------------------------------|
A|--2222-----------------------3333----------------------------------------|
E|--0000-----------------------3333----------------------------------------|
Guitar 2 play between riffs^
e|-------------------------------------------------------------------------|
B|--------------------12*-------------------------------12*----------------|
G|--------12*--12*---------------------------12*-12*-----------------------|
D|-----------------12*-------------------------------12*-------------------|
A|-------------------------------------------------------------------------|
E|-------------------------------------------------------------------------|


Guitar 1 (dist.)
e|-------------------------------------------------------------------------|
B|-------------------------------------------------------------------------|
G|--------------------------2222--------55555555---------------------------|
D|-5555---------------------2222--------55555555---------------------------|
A|-2222---------------------0000--------33333333---------------------------|
E|---------------------------------------333333----------------------------|
Guitar 2
e|-------------------------------------------------------------------------|
B|-------------------12*---------------------12*---------------------------|
G|-------12*-12*----------------12*--12*-----------------------------------|
D|---------------12*--------------------12*--------------------------------|
A|-------------------------------------------------------------------------|
E|-------------------------------------------------------------------------|


Chorus (dist.)
e|-------------------------------------------------------------------------|
B|-------------------------------------------------------------------------|
G|--0-0-00000000------------------------------------------2222222----------|
D|--2-2-22222222------------------------------------------2222222----------|
A|--2-2-22222222----3333333333333333333----555555555555555-------555555555-|
E|--0-0-00000000----3333333333333333333----333333333333333-------222222222-|


e|-------------------------------------------------------------------------|
B|-------------------------------------------------------------------------|
G|--------------------------------------------------------------55555555---|
D|-------------------------------------------------------222222233333333---|
A|---2222222222222222---3333333333333333-55555555555555550000000-----------|
E|---0000000000000000---3333333333333333-3333333333333333------------------|


Back to the intro just once

e|--3--5-----7-------3--3-----2--------------------------------------------|
B|--0----------------------------------------------------------------------|
G|--0----------------------------------------------------------------------|
D|-------------------------------------------------------------------------|
A|-------------------------------------------------------------------------|
E|--3----------------------------------------------------------------------|


Then this

e|-------------------------------------------------------------------------|
B|-------------------------------------------------------------------------|
G|-------------------------------------------------------------------------|
D|-555555-4-5--555555--------5555555--4---555555---5---7---9---------------|
A|-xxxxxx-x-x--xxxxxx-0------xxxxxxx--x---xxxxxx---x---x---x---------------|
E|-333333-2-3--333333-0------3333333--2---333333---3-0-5-0-7---------------|

e|-------------------------------------------------------------------------|
B|-------------------------------------------------------------------------|
G|-------------------------------------------------------------------------|
D|-555555-4-4--5-555555----555555-4-4--555555------------------------------|
A|-xxxxxx-x-x--x-xxxxxx----xxxxxx-x-x--xxxxxx------------------------------|
E|-333333-2-2--3-333333----333333-2-2--333333------------------------------|


P.M. All
e|-------------------------------------------------------------------------|
B|-------------------------------------------------------------------------|
G|-------------------------------------------------------------------------|
D|-------------------------------------------------------------------------|
A|-------------------------------------------------------------------------|
E|--7777777777777-88-77-8888888888888-77777777777777-55555555-33333333-----|


Verse (rotating speaker kind of effect)x 4
e|-------------------------------------------------------------------------|
B|------10-----------------------------------------------------------------|
G|----------12------------------11h12--------------------------------------|
D|---12---------------------12---------------------------------------------|
A|-------------------------------------------------------------------------|
E|-------------------------------------------------------------------------|

on 4th time^ play this
P.M. all
e|-------------------------------------------------------------------------|
B|-------------------------------------------------------------------------|
G|-------------------------------------------------------------------------|
D|-------------------------------------------------------------------------|
A|-------------------------------------------------------------------------|
E|--77777777-55555555-3~---------------------------------------------------|


Pre-Chorus & Chorus                   |from  here to   here  repeat   twice|
e|-------------------------------------------------------------------------|
B|-------------------------------------------------------------------------|
G|-------------------------------------------------------------------------|
D|---5-555555555555555-555555555555555-5555555555555555--------------------|
A|---2-222222222222222-333333333333330-2222222222222222-77777777-55555555--|
E|------------------------------------------------------55555555-33333333-0|


End on this chord:
e|-------------------------------------------------------------------------|
B|-------------------------------------------------------------------------|
G|---0~--------------------------------------------------------------------|
D|---2~--------------------------------------------------------------------|
A|---2~--------------------------------------------------------------------|
E|---0~--------------------------------------------------------------------|


6) Down
Tune down 1 1/2 steps (C#,F#,B,E,G#,C#)

Intro Guitar 1(dist.) x4
e|-------------------------------------------------------------------------|
B|-------------------------------------------------------------------------|
G|--7-7-7-x-7--7-7--x--7---------------------------------------------------|
D|--x-x-x-x-x--x-x--x--x---------------------------------------------------|
A|--5-5-5-x-5--5-5--x--5---------------------------------------------------|
E|-------------------------------------------------------------------------|
Verse
Guitar 2 (light distortion) come in after 2nd time of this^ play with^
e|-------------------------------------------------------------------------|
B|-------------------------------------------------------------------------|
G|--7-7-7-7-7-7---4-4-4-4---6-6-6-6----------------------------------------|
D|--7-7-7-7-7-7---4-4-4-4---6-6-6-6----------------------------------------|
A|--5-5-7-5-5-5---2-2-2-2---4-4-4-4----------------------------------------|
E|-------------------------------------------------------------------------|

Pre-Chorus ("Ti-dal-waves-they...")_
e|-------------------------------------------------------------------------|
B|-------------------------------------------------------------------------|
G|-------------------------------------------------------------------------|
D|--4-4-4-4--4-4-4--4-4-4---7-7-7-7-7---7-7-7-7----7-7-7-7-7--7-7----------|
A|--2-2-2-2--2-2-2--2-2-2p0-4-4-4-4-4---4-4-4-4/5--5-5-5-5-5--5-5p0--------|
E|-------------------------------------------------------------------------|

e|-------------------------------------------------------------------------|
B|-------------------------------------------------------------------------|
G|-----------------------------------------------------------------------0-|
D|--2-2---2---2---2--0--2-----4-4-4--4-4-4-4-4-4---777--7-7--7-7-7-------0-|
A|--0-0---0---0---0--0--0-----2-2-2--2-2-2-2-2-2p0-444--4-4--4-4-4-------0-|
E|-------------------------------------------------------------------------|


Chorus
e|-------------------------------------------------------------------------|
B|-------------------------------------------------------------------------|
G|-------------------------------------------------------------------------|
D|--14--14--14-----14---14-----14-14-14----12-12--12--12--12---12----------|
A|--12--12--12-----12---12-----12-12-12----10-10--10--10--10---10----------|
E|-------------------------------------------------------------------------|

e|-------------------------------------------------------------------------|
B|-------------------------------------------------------------------------|
G|---11--11----11----11--11--11--11--11--11--------------------------------|
D|----x---x-----x-----x---x---x---x---x---x-----12--12--12--12--12---------|
A|----9---9-----9-----9---9---9---9---9---9-----10--10--10--10--10---------|
E|-------------------------------------------------------------------------|


Verse
(light distortion)
e|-------------------------------------------------------------------------|
B|-------------------------------------------------------------------------|
G|--7-7-7-7-7-7---4-4-4-4---6-6-6-6----------------------------------------|
D|--7-7-7-7-7-7---4-4-4-4---6-6-6-6----------------------------------------|
A|--5-5-7-5-5-5---2-2-2-2---4-4-4-4----------------------------------------|
E|-------------------------------------------------------------------------|

Pre-Chorus ("Ti-dal-waves-they...")_
e|-------------------------------------------------------------------------|
B|-------------------------------------------------------------------------|
G|-------------------------------------------------------------------------|
D|--4-4-4-4--4-4-4--4-4-4---7-7-7-7-7---7-7-7-7----7-7-7-7-7--7-7----------|
A|--2-2-2-2--2-2-2--2-2-2p0-4-4-4-4-4---4-4-4-4/5--5-5-5-5-5--5-5p0--------|
E|-------------------------------------------------------------------------|

e|-------------------------------------------------------------------------|
B|-------------------------------------------------------------------------|
G|-----------------------------------------------------------------------0-|
D|--2-2---2---2---2--0--2-----4-4-4--4-4-4-4-4-4---777--7-7--7-7-7-------0-|
A|--0-0---0---0---0--0--0-----2-2-2--2-2-2-2-2-2p0-444--4-4--4-4-4-------0-|
E|-------------------------------------------------------------------------|


Chorus
e|-------------------------------------------------------------------------|
B|-------------------------------------------------------------------------|
G|-------------------------------------------------------------------------|
D|--14--14--14-----14---14-----14-14-14----12-12--12--12--12---12----------|
A|--12--12--12-----12---12-----12-12-12----10-10--10--10--10---10----------|
E|-------------------------------------------------------------------------|

e|-------------------------------------------------------------------------|
B|-------------------------------------------------------------------------|
G|---11--11----11----11--11--11--11--11--11--------------------------------|
D|----x---x-----x-----x---x---x---x---x---x-----12--12--12--12--12---------|
A|----9---9-----9-----9---9---9---9---9---9-----10--10--10--10--10---------|
E|-------------------------------------------------------------------------|

7)The Fallen Interlude

Guitar 1(Piano) x8
e|-------12----------------------------------------------------------------|
B|---12--12----------------------------------------------------------------|
G|-------12----------------------------------------------------------------|
D|-------------------------------------------------------------------------|
A|-------------------------------------------------------------------------|
E|-------------------------------------------------------------------------|

Guitar 2 play after 4 times of this^
e|---17------15/19---------------7h8p7-----------12~-----------------------|
B|-------------------------------------------------------------------------|
G|-------------------------------------------------------------------------|
D|-------------------------------------------------------------------------|
A|-------------------------------------------------------------------------|
E|-------------------------------------------------------------------------|

e|---12--------------------------------------------------------------------|
B|------------10------8/10---------7/8-------12--10--8h10------------------|
G|-------------------------------------------------------------------------|
D|-------------------------------------------------------------------------|
A|-------------------------------------------------------------------------|
E|-------------------------------------------------------------------------|

e|---17------15------1410----------19----------------------------------------|
B|---------------------------------------------------------------------------|
G|---------------------------------------------------------------------------|
D|---------------------------------------------------------------------------|
A|---------------------------------------------------------------------------|
E|---------------------------------------------------------------------------|


8)Go
Standard Tuning

Intro (light dist.) x2
e|-------------------------------------------------------------------------|
B|-------------------------------------------------------------------------|
G|-------------------------------------------------------------------------|
D|--2222222-22222220-------------------------------------------------------|
A|--3333333-33333330-333333333-333333330-----------------------------------|
E|-------------------111111111-111111110-----------------------------------|

Verse x2
e|-------------------------------------------------------------------------|
B|-------------------------------------------------------------------------|
G|-------------------------------------------------------------------------|
D|-------------------------------------------------------------------------|
A|---3-3-3-3-3-3-3-3-3-3-3-3-3-2-2-5-5-------------------------------------|
E|-------------------------------------1-1-1-1-1-1-1-1-1-1-1-1-1-1-0-0-----|

Chorus x2
e|-------------------------------------------------------------------------|
B|---1-1-1-1-1-1-1-1-------------------------------------------------------|
G|---2-2-2-2-2-2-2-2-------------------------------------------------------|
D|---2-2-2-2-2-2-2-2-0-----------------------------------------------------|
A|---0-0-0-0-0-0-0-0-0---3-3-3-3-3-3-3-3-----------------------------------|
E|-----------------------1-1-1-1-1-1-1-1-0---------------------------------|

Interlude x2
Guitar 1
e|-------------------------------------------------------------------------|
B|-------------------------------------------------------------------------|
G|-------------------------------------------------------------------------|
D|---------2---------------------------------------------------------------|
A|--3h5---------3----3p2h3----5--3-----------------------------------------|
E|-------------------------------------------------------------------------|
Guitar 2
e|-------------------------------------------------------------------------|
B|-------------------------------------------------------------------------|
G|-------------------------------------------------------------------------|
D|--5----------------------------------------------------------------------|
A|--3--333333333333330------------------3-3-3-3----------------------------|
E|---------------------11111111-1-1-1-1-1-1-1-1----------------------------|
     PM^^^^^^^^^^^^^^^^^^^^^^^^^^^^^^^^^^^^^^^^^(cool palm mute part)

Verse
e|-------------------------------------------------------------------------|
B|-------------------------------------------------------------------------|
G|--5~---------------------------------------------------------------------|
D|--5~---------------------------------------------------------------------|
A|--3~---------------------------------------------------------------------|
E|-------------------------------------------------------------------------|


Chorus ("I dont wanna know")
e|-------------------------------------------------------------------------|
B|-------------------------------------------------------------------------|
G|-------------------------------------------------------------------------|
D|-2-----------------------------------------------------------------------|
A|-0-----------------------------------------------------------------------|
E|-------------------------------------------------------------------------|

This part twice
e|-------------------------------------------------------------------------|
B|-------------------------------------------------------------------------|
G|--99999999--------5555--7777--9999--10-10-10-10--------------------------|
D|--xxxxxxxx--0-----xxxx--xxxx--xxxx---x--x--x--x--------------------------|
A|--77777777--0-----3333--5555--7777---8--8--8--8--------------------------|
E|-------------------------------------------------------------------------|


9)Asthenia
Drop-D tuning DADGBe

Intro ( about 50 sec of nasa transmissions)
Guitar 1(Some type of flange)
e|-------------------------------------------------------------------------|
B|-----------7~--------------------------7~--------------------------------|
G|----7---------------7-----6----7----------------7------------6----7------|
D|--------0--------------0-----------0--------------------0----------------|
A|-------------------------------------------------------------------------|
E|-------------------------------------------------------------------------|
Verse
Guitar 2(flange, dist.) play after last note^^,when singing begins.
e|-------------------------------------------------------------------------|
B|-------------------------------------------------------------------------|
G|--77777777-77777777-77777777-66666666------------------------------------|
D|--00000000-xxxxxxxx-xxxxxxxx-00000000------------------------------------|
A|--55555555-44444444-xxxxxxxx-44444444------------------------------------|
E|--------------------77777777-xxxx5xxx------------------------------------|

Interlude (dist.)x5 then second part/
e|-------------------------------------------------------------------------|
B|-------------------------------------------------------------------------|
G|--77667799---------------------------------------------------------------|
D|--xxxxxxxx---------------------------------------------------------------|
A|--55445577-------------------------0000----------------------------------|
E|-----------------------------------0000----------------------------------|
                                 P.M.****

Chorus (dist.)
e|-------------------------------------------------------------------------|
B|-------------------------------------------------------------------------|
G|-------------------------------------------------------------------------|
D|-------0--0-----0-0------0-------0-0------0-0----0-------0-0-----0-0--0--|
A|-------5--5-----5-5------5-------5-5------5-4----4-------5-5-----5-5--5--|
E|--2-2-------3-3------3-3---0-5-5------5-5-----5-5--0-2-2-----3-3----33--0|

e|-------------------------------------------------------------------------|
B|-------------------------------------------------------------------------|
G|------------------------6~-----------------------------------------------|
D|------------------------0~-----------------------------------------------|
A|------5-5------4---------------------------------------------------------|
E|--5-5-----5-5--0---------------------------------------------------------|

e|---------------------------------------------------------------------------|
B|---------------------------------------------------------------------------|
G|---------------------------------------------------------------------------|
D|-------0--0-----0-0------0-------0-0------0-0----0-------0-0-----0-0--0----|
A|-------5--5-----5-5------5-------5-5------5-4----4-------5-5-----5-5--5----|
E|--2-2-------3-3------3-3---0-5-5------5-5-----5-5--0-2-2-----3-3----33--0--|


Interlude(dist.)
e|-------------------------------------------------------------------------|
B|-------------------------------------------------------------------------|
G|-------------------------------------------------------------------------|
D|---7-7-7-7-7---7--7--7----7-7---7-7----7-7---7-----7-7-7----7------------|
A|---5-5-5-5-5---5--5--5----5-5---5-5----5-5---5-5^--5-5-5----5------------|
E|-------------------------------------------------------------------------|

e|-------------------------------------------------------------------------|
B|-------------------------------------------------------------------------|
G|-------------------------------------------------------------------------|
D|----11-11-11-11-11---11-11-11-11-9--9-9---------7-7--7-7----7-7-7-7-7-7--|
A|-----9--9--9--9--9----9--9--9--9-7--7-7---------5-5--5-5^---5-5-5-5-5-5--|
E|-------------------------------------------------------------------------|

e|---------------------------------------------------------------------------|
B|---------------------------------------------------------------------------|
G|---------------------------------------------------------------------------|
D|---------------------------------------------------------------------------|
A|--55555/9999-10-10-10-107-77777777----5555/9999-10-10-10-10777777777-------|
E|--00000----------------------------0000------------------------------------|
P.M.*****                            ********

e|---------------------------------------------------------------------------|
B|---------------------------------------------------------------------------|
G|---------------------------------------------------------------------------|
D|------4444-----------------------------------------------------------------|
A|------5555/9999-10-10-10-107-7-7777777----5555/9999-10-10-10-10777777------|
E|--0000---------------------------------0000----------------------------00--|
P.M.********                         P.M.*******                     P.M.**


Chorus (dist.)
e|-------------------------------------------------------------------------|
B|-------------------------------------------------------------------------|
G|-------------------------------------------------------------------------|
D|-------0--0-----0-0------0-------0-0------0-0----0-------0-0-----0-0--0--|
A|-------5--5-----5-5------5-------5-5------5-4----4-------5-5-----5-5--5--|
E|--2-2-------3-3------3-3---0-5-5------5-5-----5-5--0-2-2-----3-3----33--0|

e|-------------------------------------------------------------------------|
B|-------------------------------------------------------------------------|
G|------------------------6~-----------------------------------------------|
D|------------------------0~-----------------------------------------------|
A|------5-5------4---------------------------------------------------------|
E|--5-5-----5-5--0---------------------------------------------------------|

e|---------------------------------------------------------------------------|
B|---------------------------------------------------------------------------|
G|---------------------------------------------------------------------------|
D|-------0--0-----0-0------0-------0-0------0-0----0-------0-0-----0-0--0----|
A|-------5--5-----5-5------5-------5-5------5-4----4-------5-5-----5-5--5----|
E|--2-2-------3-3------3-3---0-5-5------5-5-----5-5--0-2-2-----3-3----33--0--|

10)Always
Standard Tuning

Intro Guitar 1(Bass)
e|-------------------------------------------------------------------------|
B|-------------------------------------------------------------------------|
G|--4444444466666666888888884444444444444444666666668888888844444444-------|
D|--4444444444444444666666662222222244444444444444446666666622222222-------|
A|-------------------------------------------------------------------------|
E|-------------------------------------------------------------------------|


e|-------------------------------------------------------------------------|
B|-------------------------------------------------------------------------|
G|---11-11-11-11-11-11-11-0---6666666604444444444444440--------------------|
D|----9--9--9--9--9--9--9-0---8888888806666666666666660--------------------|
A|-------------------------------------------------------------------------|
E|-------------------------------------------------------------------------|

Verse
Guitar 2 (dist.) play with^,come in after Tom sings  "-before a few times"
P.M. All
e|---------------------------------------------------------------------------|
B|---------------------------------------------------------------------------|
G|---------------------------------------------------------------------------|
D|---------------------------------------------------------------------------|
A|---------------------------------------------------------------------------|
E|---77777777-666666664444444444444440---------------------------------------|

Guitar 1 (bass)
e|-------------------------------------------------------------------------|
B|-------------------------------------------------------------------------|
G|----11-11-11-11-11-11-11-0-6666666664444444066666666---------------------|
D|-----9--9--9--9--9--9--9-9-8888888886666666644444444---------------------|
A|-------------------------------------------------------------------------|
E|-------------------------------------------------------------------------|

Guitar 2 (dist.) play with above^
P.M. All
e|-------------------------------------------------------------------------|
B|-------------------------------------------------------------------------|
G|-------------------------------------------------------------------------|
D|-----------------------------------------4-------------------------------|
A|---------------------------------------2-2-------------------------------|
E|--77777777-66666666-44444444-22222222--2---------------------------------|


Guitar 2 (light dist.) x2
e|-------------------------------------------------------------------------|
B|----------4--------4-------4---------------------------------------------|
G|-------4--------4-------4-----------4-------4----------------------------|
D|-------------------------------------------------------------------------|
A|---2-2--2---4-4---4------------------------------------------------------|
E|---------------------4-4--4-----0-0----0-0-0---0-------------------------|

Guitar 3 (light dist.)x2 let ring during this^          *then hit these two
e|-------------------------------------------------------------------------|
B|-------------------------------------------------------------------------|
G|--4~-----------------------------------------------------------------4-4-|
D|--4~-----------------------------------------------------------------4-4-|
A|--2~-----------------------------------------------------------------2-2-|
E|-------------------------------------------------------------------------|

Chorus
Guitar 1(dist.)
e|-------------------------------------------------------------------------|
B|12-12-12-12-12-12-12-12-11-11-11-11-11-11-11-11-99999999-----------------|
G|-x--x--x--x--x--x--x--x--x--x--x--x--x--x--x--x-xxxxxxxx99999999---------|
D|-9--9--9--9--9--9--9--9--8--8--8--8--8--8--8--8-66666666xxxxxxxx---------|
A|--------------------------------------------------------77777777---------|
E|-------------------------------------------------------------------------|
Guitar 2(dist.)play with above^
e|-------------------------------------------------------------------------|
B|-------------------------------------------------------------------------|
G|-4444444--8888888--------------------------------------------------------|
D|-44444440-xxxxxxx0-66666666--2222-2222-----------------------------------|
A|-22222220-66666660-xxxxxxxx0-2222-2222-----------------------------------|
E|-------------------444444440-0000-0000-----------------------------------|

Verse x2
Guitar 1 (with chorus effect) "and I'll miss your laugh, your smile"
e|-------------------------------------------------------------------------|
B|-------------------------------------------------------------------------|
G|-------------------------------------------------------------------------|
D|-------------------------------------------------------------------------|
A|-----6--------6---4---------4------6-------------------------------------|
E|---------7-------------6----------------4------2/4-----------------------|


Pre Chorus
Guitar 2 (light dist.) x2
e|-------------------------------------------------------------------------|
B|----------4--------4-------4---------------------------------------------|
G|-------4--------4-------4-----------4-------4----------------------------|
D|-------------------------------------------------------------------------|
A|---2-2--2---4-4---4------------------------------------------------------|
E|---------------------4-4--4-----0-0----0-0-0---0-------------------------|

Guitar 3 (light dist.)x2 let ring during this^          *then hit these two
e|-------------------------------------------------------------------------|
B|-------------------------------------------------------------------------|
G|--4~-----------------------------------------------------------------4-4-|
D|--4~-----------------------------------------------------------------4-4-|
A|--2~-----------------------------------------------------------------2-2-|
E|-------------------------------------------------------------------------|

Chorus
Guitar 1(dist.)
e|-------------------------------------------------------------------------|
B|12-12-12-12-12-12-12-12-11-11-11-11-11-11-11-11-99999999-----------------|
G|-x--x--x--x--x--x--x--x--x--x--x--x--x--x--x--x-xxxxxxxx99999999---------|
D|-9--9--9--9--9--9--9--9--8--8--8--8--8--8--8--8-66666666xxxxxxxx---------|
A|--------------------------------------------------------77777777---------|
E|-------------------------------------------------------------------------|
Guitar 2(dist.)play with above^
e|-------------------------------------------------------------------------|
B|-------------------------------------------------------------------------|
G|-4444444--8888888--------------------------------------------------------|
D|-44444440-xxxxxxx0-66666666--2222-2222-----------------------------------|
A|-22222220-66666660-xxxxxxxx0-2222-2222-----------------------------------|
E|-------------------444444440-0000-0000-----------------------------------|

Interlude
Guitar 1 (light dist.)
e|-------------------------------------------------------------------------|
B|-----4---4---4---4---4--5------------------------------------------------|
G|-------4---4---4---4-----------------------------------------------------|
D|-------------------------------------------------------------------------|
A|-------------------------------------------------------------------------|
E|-------------------------------------------------------------------------|
Guitar 2 (dist.) play with above^
e|-------------------------------------------------------------------------|
B|-------------------------------------------------------------------------|
G|---44444444-66666666-44444444-4-8-8-8-8-444------------------------------|
D|---xxxxxxxx-xxxxxxxx-xxxxxxxx-x-x-x-x-x-xxx------------------------------|
A|---22222222-44444444-22222222-2-6-6-6-6-222------------------------------|
E|-------------------------------------------------------------------------|


Outro
Guitar 1(light dist.)(some kind of synthesizer or something)
e|-----11-------------11------------11---------12--11--------11----------16|
B|---------14---12-------14----12------14---12-------12---------14---12----|
G|-------------------------------------------------------------------------|
D|-------------------------------------------------------------------------|
A|-------------------------------------------------------------------------|
E|-------------------------------------------------------------------------|

11)Easy Target
Standard Tuning

Intro Guitar 1 (dist.) x2
e|-------------------------------------------------------------------------|
B|-------------------------------------------------------------------------|
G|-------------------------------------------------------------------------|
D|-11-----11-11-11-11-11-11-11-11-11-11-14-14-14-14------------------------|
A|--x------x--x--x--x--x--x--x--x--x--x--x--x--x--x------------------------|
E|--9------9--9--9--9--9--9--9--9--9--9-12-12-12-12------------------------|
Guitar 2
e|-------------------------------------------------------------------------|
B|-------------------------------------------------------------------------|
G|-------------------------------------------------------------------------|
D|--4------4--4--4--4--4--4---7-7-7-7----2--2--2--2------------------------|
A|--4------4--4--4--4--4--4-4-7-7-7-7----2--2--2--2------------------------|
E|--2------2--2--2--2--2--2-2-5-5--------0--0--0--0------------------------|






Verse Guitar 1 (dist.)x4
e|-------------------------------------------------------------------------|
B|-------------------------------------------------------------------------|
G|-------------------------------------------------------------------------|
D|--11-11-11-11-11-11-11-11-11-11-11-11-11-11-11-9-9-9111111--7~-----------|
A|-------------------------------------------------------------------------|
E|---9--9--9--9--9--9--9--9--9--9--9--9--9--9--9-7-7-7-9-9-9--5~-----------|

Chorus Guitar 1 (dist.) x2
e|-------------------------------------------------------------------------|
B|-------------------------------------------------------------------------|
G|-------------------------------------------------------------------------|
D|-------------------------------------------------------------------------|
A|--11-11-11-11-11-11-11-11-14-14-14-14-9-9-9-9-11-11-11-11-11-11-11-14-14-|
E|---9--9--9--9--9--9--9--9-12-12-12-12-7-7-7-7--9--9--9--9--9--9--9-12-12-|

(continued)
e|-------------------------------------------------------------------------|
B|-------------------------------------------------------------------------|
G|-------------------------------------------------------------------------|
D|-------------------------------------------------------------------------|
A|--14-14-9-9-9-9----------------------------------------------------------|
E|--12-12-7-7-7-7----------------------------------------------------------|

Verse Guitar 1 (dist.) x2
e|-------------------------------------------------------------------------|
B|-------------------------------------------------------------------------|
G|-------------------------------------------------------------------------|
D|--7~---------------------------------------------------------------------|
A|--x~---------------------------------------------------------------------|
E|--5~---------------------------------------------------------------------|


Chorus Guitar 1 (dist.) x2
e|-------------------------------------------------------------------------|
B|-------------------------------------------------------------------------|
G|-------------------------------------------------------------------------|
D|-------------------------------------------------------------------------|
A|--11-11-11-11-11-11-11-11-14-14-14-14-9-9-9-9-11-11-11-11-11-11-11-14-14-|
E|---9--9--9--9--9--9--9--9-12-12-12-12-7-7-7-7--9--9--9--9--9--9--9-12-12-|

(continued)
e|-------------------------------------------------------------------------|
B|-------------------------------------------------------------------------|
G|-------------------------------------------------------------------------|
D|-------------------------------------------------------------------------|
A|--14-14-9-9-9-9----------------------------------------------------------|
E|--12-12-7-7-7-7----------------------------------------------------------|

Outro (continue straight to 'All of This')
e|---------------------------------------------------------------------------|
B|---------------------------------------------------------------------------|
G|---------------------------------------------------------------------------|
D|---4/6/7/97-----7/9/11-------94--------------------------------------------|
A|---0-------------x------------0--------------------------------------------|
E|---2/4/5/75-----5/7//9-------72--------------------------------------------|


12)All of This
Standard tuning

Intro (continue from 'Easy Target')Guitar 1 (acoustic)x2
e|---------------------------------------------------------------------------|
B|---------------------------------------------------------------------------|
G|---------------------------------------------------------------------------|
D|---4/6/7/97-----7/9/11-------94--------7~----------------------------------|
A|---0-------------x------------0----------0~--------------------------------|
E|---2/4/5/75-----5/7//9-------72--------5~----------------------------------|

Verse x4
e|-------------------------------------------------------------------------|
B|-------------------------------------------------------------------------|
G|-------------------------------------------------------------------------|
D|--11-11-11-11-11-11-11-11-11-11-11-11-11-11-11-9-9-9111111--7~-----------|
A|-------------------------------------------------------------------------|
E|---9--9--9--9--9--9--9--9--9--9--9--9--9--9--9-7-7-7-9-9-9--5~-----------|

Chorus x2
e|-------------------------------------------------------------------------|
B|-------------------------------------------------------------------------|
G|-------------------------------------------------------------------------|
D|-44444444444422227777777777779999----------------------------------------|
A|-00000000000000000000000000000000----------------------------------------|
E|-22222222222200005555555555557777----------------------------------------|

Interlude Guitar 2 (electric) x2
e|-------------------------------------------------------------------------|
B|-------------------------------------------------------------------------|
G|-------------------------------------------------------------------------|
D|---7--------7-------7-------7--------7-----------------------------------|
A|---0--------0-------0-------0--------0-----------------------------------|
E|---5--------5-------5-------5--------5-----------------------------------|

Verse Guitar 1(acoustic) x4
e|----------------0--------------------------------------------------------|
B|---2--------------------0--------2--------3------------------------------|
G|-------------------------------------------------------------------------|
D|-------------------------------------------------------------------------|
A|-------------------------------------------------------------------------|
E|-------------------------------------------------------------------------|

Chorus x2
e|-------------------------------------------------------------------------|
B|-------------------------------------------------------------------------|
G|-------------------------------------------------------------------------|
D|-44444444444422227777777777779999----------------------------------------|
A|-00000000000000000000000000000000----------------------------------------|
E|-22222222222200005555555555557777----------------------------------------|

Interlude Guitar 2 (electric) x2
e|-------------------------------------------------------------------------|
B|-------------------------------------------------------------------------|
G|-------------------------------------------------------------------------|
D|---7--------7-------7-------7--------7-----------------------------------|
A|---0--------0-------0-------0--------0-----------------------------------|
E|---5--------5-------5-------5--------5-----------------------------------|

Interlude part 2 Guitar 3(clean Electric)
e|-------------------------------------------------------------------------|
B|-------------------------------------------------------------------------|
G|---2----2---2---1--1-----2----2-----2-------2-2--------------------------|
D|-------------------------------------------------------------------------|
A|-------------------------------------------------------------------------|
E|-------------------------------------------------------------------------|
Guitar 4 (clean Electric) play with above^
e|-------------------------------------------------------------------------|
B|-------------------------------------------------------------------------|
G|-------------------------------------------------------------------------|
D|-------------------------------------------------------------------------|
A|-------------------------------------------------------------------------|
E|---222222222222/4444555555555555/7777-0----------------------------------|

Chorus x2
e|-------------------------------------------------------------------------|
B|-------------------------------------------------------------------------|
G|-------------------------------------------------------------------------|
D|-44444444444422227777777777779999----------------------------------------|
A|-00000000000000000000000000000000----------------------------------------|
E|-22222222222200005555555555557777----------------------------------------|

Interlude Guitar 2 (electric) x2
e|-------------------------------------------------------------------------|
B|-------------------------------------------------------------------------|
G|-------------------------------------------------------------------------|
D|---7--------7-------7-------7--------7-----------------------------------|
A|---0--------0-------0-------0--------0-----------------------------------|
E|---5--------5-------5-------5--------5-----------------------------------|

Outro Guitar 5 (bass)
e|-------------------------------------------------------------------------|
B|-------------------------------------------------------------------------|
G|-------------------------------------------------------------------------|
D|-------------------------------------------------------------------------|
A|------------------------2----4---5---------------------------------------|
E|---2---0----2----0---2---------------------------------------------------|


13) Here's Your Letter
Standard Tuning

Intro: some effects like flange and tremolo just hit open E string
then play this:
Riff 1:
e|-------------------------------------------------------------------------|
B|----------------3----3---3--3-3------------------------------------------|
G|----------------2----2---2--2-2------------------------------------------|
D|----------------0----0---0--0-0---2---2--2-2-2--4-4-4-4-4----------------|
A|---4-4---4-4----0----0---0--0-0---0---0--0-0-0--2-2-2-2-2----------------|
E|---2-2---2-2-0-----------------------------------------------------------|

Verse Guitar 2 (bass)
e|-------------------------------------------------------------------------|
B|-------------------------------------------------------------------------|
G|-------------------------------------------------------------------------|
D|-------------------------------------------------------------------------|
A|-------------5-5-5-5--5--------------2-2-2-2h4-2-------------------------|
E|--2-2-2-2--2-------------5-5-5-5--5--------------------------------------|
Continued:
e|-------------------------------------------------------------------------|
B|-------------------------------------------------------------------------|
G|-------------------------------------------------------------------------|
D|-------------------------------------------------------------------------|
A|-------------5-5-5-5--5--------------------------------------------------|
E|--2-2-2-2--2------------5-5-5-5-5-5-5-5-5-5-5-5-5-5-5--------------------|
Continued with electric guitar muted:
e|-------------------------------------------------------------------------|
B|-------------------------------------------------------------------------|
G|-------------------------------------------------------------------------|
D|-------------------------------------------------------------------------|
A|--------------------------------------------4-4-4-2--2-2-5-5-------------|
E|---2-2-2-4-4-4-5-5-5-5-5-5-5-5-5-5-5-5-5-5-0-----------------------------|
P.M.***********************************************************************
continued:
e|-------------------------------------------------------------------------|
B|-------------------------------------------------------------------------|
G|-------------------------------------------------------------------------|
D|-------------------------------------------------------------------------|
A|---5-4-4-4-4-4-4-------------0-4-4-4-------------------------------------|
E|-----------------0-2-2-2-4-4-0-4-4-5-------------------------------------|
P.M.***********************************************************************


Chorus x2    "fuck, i cant let this kill me ... let goooo"
e|-------------------------------------------------------------------------|
B|-------------------------------------------------------------------------|
G|-------------------------------------------------------------------------|
D|-----------6-6-6-----------------------0-0-0-0----0-0--0-0--0-0-0--------|
A|---7-7-7---4-4-4--2-2----4-4-4-4----0--------------------------------0---|
E|---5-5-5---4-4-4--0-0----2-2-2-2-------------------------------------0---|

Interlude
e|-------------------------------------------------------------------------|
B|----------------3----3---3--3-3------------------------------------------|
G|----------------2----2---2--2-2------------------------------------------|
D|----------------0----0---0--0-0---2---2--2-2-2--4-4-4-4-4----------------|
A|---4-4---4-4----0----0---0--0-0---0---0--0-0-0--2-2-2-2-2----------------|
E|---2-2---2-2-0-----------------------------------------------------------|


Verse x2
e|-------------------------------------------------------------------------|
B|-------------------------------------------------------------------------|
G|-------------------------------------------------------------------------|
D|-------------------------------------------------------------------------|
A|--------------5-5-5-5---5------------------------------------------------|
E|--2-2-2-2--2--------------5-5-5-5--5--7-7-7-7--7-------------------------|
P.M.***********************************************************************
e|-------------------------------------------------------------------------|
B|-------------------------------------------------------------------------|
G|-------------------------------------------------------------------------|
D|-------------------------------------------------------------------------|
A|-----------5-5-5-5--5----------------------------------------------------|
E|-2-2-2-2-2------------5-5-5-5-5-5-5-5-5-5-5-5-5-5-5----------------------|
P.M.***********************************************************************

Chorus x2    "fuck, i cant let this kill me ... let goooo"
e|-------------------------------------------------------------------------|
B|-------------------------------------------------------------------------|
G|-------------------------------------------------------------------------|
D|-----------6-6-6-----------------------0-0-0-0----0-0--0-0--0-0-0--------|
A|---7-7-7---4-4-4--2-2----4-4-4-4----0--------------------------------0---|
E|---5-5-5---4-4-4--0-0----2-2-2-2-------------------------------------0---|


Interlude x2
e|-------------------------------------------------------------------------|
B|-------------------------------------------------------------------------|
G|-------------------------------------------------------------------------|
D|----------------------------7-7---7--7-7-7-7-7-7-7-7---------------------|
A|-4444444444----------5------5-5---5--5-5-5-5-5-5-5-5-------------0-------|
E|-5555555555-5-5-4-0--5-------------------------------------------0-------|

Bridge "Im talkin to the ceiling"  x2
e|-------------------------------------------------------------------------|
B|-------------------------------------------------------------------------|
G|-------------------------------------------------------------------------|
D|-------------------------------------------------------------------------|
A|--44444444-4444-4-4---6-6---6-6-6-6-6-6-6-6-6--5-------------------------|
E|--22222222-2222-2-2-0-4-4---4-4-4-4-4-4-4-4-4--5-------------------------|

Chorus x2    "fuck, i cant let this kill me ... let goooo"
e|-------------------------------------------------------------------------|
B|-------------------------------------------------------------------------|
G|-------------------------------------------------------------------------|
D|-----------6-6-6-----------------------0-0-0-0----0-0--0-0--0-0-0--------|
A|---7-7-7---4-4-4--2-2----4-4-4-4----0--------------------------------0---|
E|---5-5-5---4-4-4--0-0----2-2-2-2-------------------------------------0---|

Outro
e|-------------------------------------------------------------x-----------|
B|----------------3----3---3--3-3------------------------------x-----------|
G|----------------2----2---2--2-2------------------------------2-----------|
D|----------------0----0---0--0-0---2---2--2-2-2--4-4-4-4-4----4-----------|
A|---4-4---4-4----0----0---0--0-0---0---0--0-0-0--2-2-2-2-2----0-----------|
E|---2-2---2-2-0-----------------------------------------------2-----------|


14)I'm Lost Without You
Standard Tuning
Intro: sound effects then this:
Guitar 1 (piano)(finger picked)
e|----------------------------------0--------------------------------------|
B|--5-----------5----------5-----------------------------------------------|
G|----2----2-----------------2---2----1----1-------------------------------|
D|-----------------6----6--------------------2-----------------------------|
A|--0----0-----------------------------------------------------------------|
E|--------------4-----4----2---2----0----0---------------------------------|

Verse x2 "I swear that I can go.."
e|----------------------------------0--------------------------------------|
B|--5-----------5----------5-----------------------------------------------|
G|----2----2-----------------2---2----1----1-------------------------------|
D|-----------------6----6--------------------2-----------------------------|
A|--0----0-----------------------------------------------------------------|
E|--------------4-----4----2---2----0----0---------------------------------|

Verse part 2 "I will go down.."
e|----------------0------0-------------------------------------------------|
B|---5---5-------------------5-----5---------5--------5--------------------|
G|---2---2--------1------1---2-----2---------4--------4--------------------|
D|---4--------4------2---------2--------2--------2-------------2-----------|
A|---------------------------0---0-------0---2------2------2---------------|
E|---2------------0----0---0-----------------------------------------------|

e|----------------0-------0------------------------------------------------|
B|--5-----5--------------------------5-------5------------5----------------|
G|--2-----2-------1-------1----------2-------2------------4----------------|
D|-----4-------------2----------2-------2-----------2-----2----------------|
A|-----------------------------------0----0------0-----0--2----------------|
E|--3----------2--0-----0-----0----0---------------------------------------|

Chorus Guitar 2 (electirc clean) x 16
e|-------------------------------------------------------------------------|
B|-------------------------------------------------------------------------|
G|----9~-------------------------------------------------------------------|
D|----7~-------------------------------------------------------------------|
A|----0~-------------------------------------------------------------------|
E|-------------------------------------------------------------------------|

Verse Guitar 2 (clean)x2
e|-------------------------------------------------------------------------|
B|-------------------------------------------------------------------------|
G|-------------------------------------------------------------------------|
D|-------------------------------------------------------------------------|
A|-0-0-0-0-0-0-0----7-7-7-7-7-7-7-7-0-0-0-0-0-0-0-0-0-0-0-7-7-7-7-7--------|
E|-2-2-2-2-2-2-2/4--4-4-4-4-4-4-4-4-5-5-5-5-5-5-5-5-7-7-7-7-7-7-7-7--------|

Guitar 3 (keyboard)
e|---------9------9-------9------9----------------------------------9------|
B|------10-----10----9-10---9-10-----10-12----10--12---10---12---10--------|
G|---11------11--------------------9-------9---------9----9----9-----------|
D|-------------------------------------------------------------------------|
A|-------------------------------------------------------------------------|
E|-------------------------------------------------------------------------|
Guitar 2 (clean) play with above^
e|-------------------------------------------------------------------------|
B|-------------------------------------------------------------------------|
G|-------------------------------------------------------------------------|
D|-------------------------------------------------------------------------|
A|-0-0-0-0-0-0-0-0-7-7-7-7-6-7-7-7-0-0-0-0-0-0-0-0-0-----------------------|
E|-2-2-2-2-2-2-2-2-4-4-4-4-4-4-4-4-5-5-5-5-5-5-5-5-7-----------------------|

Interlude (clean) x2
e|----5---5---5---5----7---7---7---7---------------------------------------|
B|------5---5---5---5----5---5---5---5-------------------------------------|
G|-------------------------------------------------------------------------|
D|-------------------------------------------------------------------------|
A|-------------------------------------------------------------------------|
E|-------------------------------------------------------------------------|

Riff 2 (clean)
e|-------------------------------------------------------------------------|
B|--2---2--------------------------2-----2---------------------------------|
G|----2---2------------------2--4-----2-----2------------------------------|
D|------------2--2----6--6---------------------2---2-----------------------|
A|--0----------------------------------------------------------------------|
E|------------------4--------------2---------------------------------------|

Riff 3 (clean)
e|-------------------------------------------------------------------------|
B|---------------------2---2------------------0--2---2---------------------|
G|-----4--4-----4--2-----2---2--------1--1--2------2---2---------4--4------|
D|-----------------------------2-2------------------------2--2-0-----------|
A|---------------------0------------2------------4-------------------------|
E|--0----------------------------------------------------------------------|

Chorus and outro play till the sick drum solo.
e|----5---5---5---5----7---7---7---7---------------------------------------|
B|------5---5---5---5----5---5---5---5-------------------------------------|
G|-------------------------------------------------------------------------|
D|-------------------------------------------------------------------------|
A|-------------------------------------------------------------------------|
E|-------------------------------------------------------------------------|


Well thats the end of a great album please rate please i spent literally months on this 
please dont call it your own, well i hope you enjoyed it see ya. This is my first tab so 
hope it comes out straight and all that.

| /  slide up
|   slide down
| h  hammer-on
| p  pull-off
| ~  vibrato
| *  harmonic
===============================================================================
15 comments total. Showing first comments.
0 reply
scrat-182 wrote on May 4 2006, 03:07 am

hey this is quite good so far. havnt really got time to look at it all at the moment got to go to school! shit! but the only thing im not sure about is i miss you! it all doesnt sound right! sorry!

0 reply
rj46g wrote on May 4 2006, 06:48 pm

thanks, um im pretty sure i miss you is right make sure you tuned it right and try playing with someonw else so they can do the second guitar(piano, organ etc.) but tjust try it out and if it still doesnt sound right i dont know what to tell you but thanks for trying it out.

0 reply
peepee182 wrote on May 8 2006, 09:46 pm

This is a good tab, i don't think dropping the 1 1/2 steps is nessasary, and always is off a little, and there is some more corrections but i to lazy to list them, nice work though

I want to post or [tab]
guest
You may want to rate the tab now too:
select rating
Please do not post tabs as comments. Select "correction" instead!