Oops, an error
Loading. Please wait.

Blink 182 Tab

ver4
ver4
More versions @911Tabs.com
7,144 views 24 this week
no commentswrite comment
1 2 3 4 5
accurate
x 1
add to favorites launch autoscroll
font size
0
reset
Autoscroll
+/-
esc
set tempo
stop
WARNING: You are trying to view
                                    content from Ultimate-Guitar.com
                                    in an unauthorized application,
                                    which is prohibited.

                                    Please use an official Ultimate
                                    Guitar Tabs application for iPhone,
                                    iPad or Android to access legitimate
                                    chords, guitar, bass, and drum tabs
                                    from Ultimate-Guitar.com database.

                                    Type "ultimate guitar tabs" in Apple
                                    App Store's or Android Market's
                                    search to find the application.
----------------------------------------------------------------------------
			     Feeling this - Blink-182
----------------------------------------------------------------------------

Tuning:EADGBe

Intro:

e|-------------------------------------------------------------------------|
B|-------------------------------------------------------------------------|
G|11\----9-----9-------------9/----13--------------------------------------|
D|x------x-----x-------------x-----x---------------------------------------|
A|9-\----7-----7------7------7/----11-----0--------------------------------|
E|--------------------0-------------------0--------------------------------|
   Play x2

Verse:
                               I'm feeling this
  Got no regret right now...   
e|-------------------------------------------------------------------------|
B|-------------------------------------------------------------------------|
G|11\----9-----9-------------9/----13--------------------------------------|
D|x------x-----x-------------x-----x---------------------------------------|
A|9-\----7-----7------7------7/----11------0-------------------------------|
E|--------------------0--------------------0-------------------------------|
   Play x8

Chorus:

  Fate fell short this time...  Place your hand in mine...
e|-------------------------------------------------------------------------|
B|-------------------------------------------------------------------------|
G|-------------------------------------------------------------------------|
D|9-----------------------------9------------------------------------------|
A|7-----------------------------7------------------------------------------|
E|0-----------------------------0------------------------------------------|

Interlude:

e|-------------------------------------------------------------------------|
B|-------------------------------------------------------------------------|
G|9-9999999-/-111111111111111-/-1313131313131313-/-14141414141414----------|
D|x-xxxxxxx-----x-x-x-x-x-x-x-----x-x-x-x-x-x-x------x-x-x-x-x-x-----------|
A|7-7777777-/-9-9-9-9-9-9-9-9-/-111111111111111--/-12121212121212----------|
E|-------------------------------------------------------------------------|

Bridge:

Guitar 1

 Look to the past and remember a smile...
e|-------------------------------------------------------------------------|
B|-------------------------------------------------------------------------|
G|99999999----------------------------------99999999-----------------------|
D|9999999999999999111111111111111177777777999999999999999911111111111111117|
A|7777777799999999111111111111111177777777777777779999999911111111111111117|
E|--------777777779-9-9-9-9-9-9-9-55555555--------777777779-9-9-9-9-9-9-9-5|
  P.M.---------------------------------------------------------------------

Guitar 2

e|-------------------------------------------------------------------------|
B|-------------------------------------------------------------------------|
G|-------------------------------------------------------------------------|
D|---6---6-----------------6---6-----------------6---6----------------6--6-|
A|77---7---7777777/999\77---7---7777777/999\77---7--7777777/999\77--7--7--5|
E|-------------------------------------------------------------------------|
 P.M.----------------------------------------------------------------------

Outro-chorus:

 Fate fell short this time...
e|-------------------------------------------------------------------------|
B|-------------------------------------------------------------------------|
G|9999999------------------------------------------------------------------|
D|9999999-9999999---------------7777777------------------------------------|
A|7777777-9999999-1111111111111-7777777------------------------------------|
E|-------0777777709-9-9-9-9-9-905555555------------------------------------|
  Play x8

============================================================================

Blink-182
Obvious
Tuning (C#-G#-E-B-F#-C#) 

Intro     
C#---------------------------------------------------------|
F#---------------------------------------------------------|
B----------------------------------------------------------|
E--5-5-55-55-5---------------------------------------------| 
G#-2-2-33-33-3---------------------------------------------| x6
C#-0-0-33-33-3---------------------------------------------|


Verse 
---------------------------------------------------------|
---------------------------------------------------------|
---------------------------------------------------------|
-5~---------5~-------------------------------------------|
-2~---------3~-------------------------------------------| x2
-0~---------3~-------------------------------------------|

                   
Corous
---------------------------------------------------------|
---------------------------------------------------------|
---------------------------------------------------------|
---------------------------------------------------------|
----222-000-333------------------------------------------| x2
-3~-------------000-2222-3333333333333333----------------|

Intro     
---------------------------------------------------------|
---------------------------------------------------------|
---------------------------------------------------------|
-5-5-55-55-5---------------------------------------------| 
-2-2-33-33-3---------------------------------------------| x4
-0-0-33-33-3---------------------------------------------|


Verse
---------------------------------------------------------|
---------------------------------------------------------|
---------------------------------------------------------|
-5~---------5~-------------------------------------------|
-2~---------3~-------------------------------------------| x2
-0~---------3~-------------------------------------------|

Corous
---------------------------------------------------------|
---------------------------------------------------------|
---------------------------------------------------------|
---------------------------------------------------------|
----222-000-333------------------------------------------| x4
-3~-------------000-2222-3333333333333333----------------|


---------------------------------------------------------|
---------------------------------------------------------|
------555------------------------------------------------|
-555--555--222-666-55-66---------------------------------| x6
-555--333--222-666-55-66---------------------------------|
-333-------000-444-33-44---------------------------------|

---------------------------------------------------------|
---------------------------------------------------------|
--------------------------------5------------------------|
-5---------------5--------------5-(x8)-------------------| x4
-5-(x16)-5-(x16)-5-(x16)-5-(x8)-3------------------------|
-3-------2-------3-------2-------------------------------|

End On
---------------------------------------------------------|
---------------------------------------------------------|
---------------------------------------------------------|
-5~------------------------------------------------------|
-2~------------------------------------------------------| x1
-0~------------------------------------------------------|

==============================================================


Artist: Blink 182
Title: I Miss You
Album: Blink 182

theres really only 2 riffs to this whole song

Intro/Verse/Interlude
e----------------
B----------------
G--4--4-8-8-8-8--
D--x--x-x-x-x-x--
A--2--2/6-6-6-6--
E-------7-7-7-7--

Chorus/Outro
e----------------------------------------------------------------------------
B--4--4--4-4-4-4-4-4--4-4-4-4-4-4--4-2--2-2-2--------------------------------
G--4--4--4-4-4-4-4-4--4-4-4-4-4-4--4-4--4-4-4--------------------------------
D--x--x--x-x-x-x-x-x--x-x-x-x-1-1--1-4--4-4-4-6--6--6-6-6-6-8-8--8-8-8-8-9-9-
A--2--2--2-2-2-2-4-4--4-4-4-4-----------------7--7--7-7-7-7-7-7--7-7-7-7-7-7-
E---------------------------------------------0--0--0-0-0-0-0-0--0-0-0-0-0-0-

=================================================

*** CAPO ON THE SECOND FRET!!! ***
ALL NOTES ARE RELATIVE TO THE CAPO, I.E. IF YOU HAVE A CAPO, PLAY THESE NOTES
AS IF THE CAPO IS THE TOP OF THE FRETBOARD. IF YOU DON'T HAVE A CAPO, ADD 2
TO EACH NOTE YOU SEE BELOW AND PLAY THE INTRO AND CHORUS BY MUTING THE A STRING.

Intro (Distorted):
e|---------------------|
B|---------------------|
G|---------------------|
D|-777-7--777-7--------|
A|-000-0--000-0--------|
E|-555-5--555-5--------|

Chorus (Distorted):
e|---------------------------------------------------------|
B|---------------------------------------------------------|
G|---------------------------------------------------------|
D|-777-7--7-7777-999-9--9-9999-444-4--4-4444-666-6--6-6666-|
A|-000-0--0-0000-000-0--0-0000-000-0--0-0000-000-0--0-0000-|
E|-555-5--5-5555-777-7--7-7777-222-2--2-2222-444-4--4-4444-|

*** Repeat chorus as necessary...

Bridge (Clean):
e|-----------------------------------------|
B|-----------------------------------------|
G|-----------------------------------------|
D|-----------------------------------------|
A|----7--7---------------7-----------------|
E|-5-------5-4-5--4-5-7----5-4-5--4-5-7----|
       >|This part repeats several times|<

*** Note: The first two notes of the bridge do not repeat,
          but the main riff does...
Chorus (Distorted):
e|---------------------------------------------------------|
B|---------------------------------------------------------|
G|---------------------------------------------------------|
D|-777-7--7-7777-999-9--9-9999-444-4--4-4444-666-6--6-6666-|
A|-000-0--0-0000-000-0--0-0000-000-0--0-0000-000-0--0-0000-|
E|-555-5--5-5555-777-7--7-7777-222-2--2-2222-444-4--4-4444-|

*** Repeat chorus as necessary...

End on:
e|---|
B|---|
G|---|
D|-7-|
A|-0-|
E|-5-|

=======================================================

Stockholm Syndrome
Words and Music by Travis Barker, Tom De Longe and Mark Hoppus
Fast Rock = 173bpm

-Be aware there are 2 guitars in the recorded version, but i tabbed them all on 1 set of 
but its pretty obvious which guitar is which.

Intro

|-----------------|-----------------|-----------------|-----------------|
|-----------------|-----------------|-----------------|-----------------|
|-0-0-0-0---------|-----------------|-------------0---|-----------------|
|-2-2-2-2---------|-----------------|-------------0---|-----------------|
|-2-2-2-2---------|-----------------|---3-3-3-3-------|-----------------|
|-0-0-0-0---------|-----------------|---3-3-3-3-------|-----------------|

|-----------------|-----------------|-----------------|-----------------|
|-----------------|-----------------|-----------------|------------0----|
|-----------------|-----------------|---2-2-2-2--7--0-|-0---------------|
|-5-5-5-5---------|-----------------|---2-2-2-2-------|-----------------|
|-2-2-2-2---------|-----------------|---0-0-0-0-------|-----------------|
|-----------------|-----------------|-----------------|-----------------|

|-----------------|-----------------|-----------------|-----------------|
|-----------------|-------------12--|-----------------|-------------12--|
|------------12---|-12--------------|---5-5-5-5--12---|-12--------------|
|-----------------|------12---------|---5-5-5-5-------|------12---------|
|-2-2-2-2---------|-----------------|---3-3-3-3-------|-----------------|
|-0-0-0-0---------|-----------------|---3-3-3-3-------|-----------------|

|-----------------|-----------------|-----------------|-----------------|
|-----------------|-------------12--|-----------------|-----------------|
|------------12---|-12--------------|---2-2-2-2--12---|--5-5-5--5-5-5-5-|
|-5-5-5-5---------|------12---------|---2-2-2-2-------|--5-5-5--5-5-5-5-|
|-2-2-2-2---------|-----------------|---0-0-0-0-------|--3-3-3--3-3-3-3-|
|-----------------|-----------------|-----------------|----3-3--3-3-3-3-|

Chorus

|-----------------|-----------------|-----------------|-----------------|
|-----------------|-----------------|-----------------|-----------------|
|(5)0-0---0-0-0---|-0-0-0-0-0-0-0-0-|-----------------|-----------------|
|(5)2-2---2-2-2---|-2-2-2-2-2-2-2-2-|-----------------|-----------------|
|(3)2-2---2-2-2---|-2-2-2-2-2-2-2-2-|---3-3---3-3-3-3-|-3-3-3-3-3-3-3-3-|
|(3)0-0---0-0-0---|-0-0-0-0-0-0-0-0-|---3-3---3-3-3-3-|-3-3-3-3-3-3-3-3-|

|-----------------|-----------------|-----------------|-----------------|
|-----------------|-----------------|-----------------|-----------------|
|-----------------|-----------------|---2-2-2-2-2-2-0-|-----------------|
|-----------------|-----------------|---2-2-2-2-2-2-0-|-----------------|
|-3-5-5-5-5-5-5-5-|-5-5-5-5-5-5-5-5-|---0-0-0-0-0-0-0-|-5-5-5-5-5-5-5-5-|
|-3-3-3-3-3-3-3-3-|-3-3-3-3-3-3-3-3-|-----------------|-2-2-2-2-2-2-2-2-|

|-----------------|-----------------|-----------------|-----------------|
|-----------------|-----------------|-----------------|-----------------|
|---0-0-0-0-0-0-0-|-0-0-0-0-0-0-0-0-|-----------------|-----------------|
|---2-2-2-2-2-2-2-|-2-2-2-2-2-2-2-2-|-----------------|-----------------|
|-5-2-2-2-2-2-2-2-|-2-2-2-2-2-2-2-2-|---3-3---3-3-3-3-|-3-3-3-3-3-3-3-3-|
|-2-0-0-0-0-0-0-0-|-0-0-0-0-0-0-0-0-|---3-3---3-3-3-3-|-3-3-3-3-3-3-3-3-|

|-----------------|-----------------|-----------------|-----------------|
|-----------------|-----------------|-----------------|-----------------|
|-----------------|-----------------|---2-2-2-2-2-2-0-|-5-5-5---5-5-5---|
|-----------------|-----------------|---2-2-2-2-2-2-0-|-5-5-5---5-5-5-0-|
|-3-5-5-5-5-5-5-5-|-5-5-5-5-5-5-5-5-|---0-0-0-0-0-0-0-|-3-3-3---3-3-3-0-|
|-3-3-3-3-3-3-3-3-|-3-3-3-3-3-3-3-3-|-----------------|-3-3-3---3-3-3---|

Interlude

|(3)---(5)----(7)-|--(3)-----(3)-(2)|-----------------|-----------------|
|(0)--------------|-----------------|-----------------|-----------------|
|(0)--------------|-----------------|-----------------|-----------------|
|-----------------|-----------------|-5-5-5-5-5-4---5-|---5-5-5-5-5-5---|
|-2---------------|-----------------|-x-x-x-x-x-x---x-|---x-x-x-x-x-x-0-|
|-0---------------|-----------------|-3-3-3-3-3-2---3-|---3-3-3-3-3-3-0-|

|(3)---(5)----(7)-|--(3)-----(3)-(2)|-----------------|-----------------|
|(0)--------------|-----------------|-----------------|-----------------|
|(0)--------------|-----------------|-----------------|-----------------|
|-----------------|-----------------|-5-5-5-5-5-4---5-|---5-5-5-5-5-5-5-|
|-2---------------|-----------------|-x-x-x-x-x-x---x-|---x-x-x-x-x-x-x-|
|-0---------------|-----------------|-3-3-3-3-3-2---3-|---3-3-3-3-3-3-3-|

|-----------------|-----------------|-----------------|-----------------|
|-----------------|-----------------|-----------------|-----------------|
|-----------------|-----------------|-----------------|-----------------|
|-5-----7-----9---|---5---5-5-5-4-4-|-5-5-5-5-5-4-4-5-|-5-5-5-5-5-5-5-5-|
|-x-----x-----x---|---x---x-x-x-x-x-|-x-x-x-x-x-x-x-x-|-x-x-x-x-x-x-x-x-|
|-3---0-5---0-7---|-0-3---3-3-3-2-2-|-3-3-3-3-3-2-2-3-|-3-3-3-3-3-3-3-3-|

|-----------------|-----------------|-----------------|-----------------|
|-----------------|-----------------|-----------------|-----------------|
|-----------------|-----------------|-----------------|-----------------|
|-5-----7-----9---|---5---5-5-5-4-4-|-5-5-5-5-5-4-4-5-|-5-5-5-5-5-5-5-5-|
|-x-----x-----x---|---x---x-x-x-x-x-|-x-x-x-x-x-x-x-x-|-x-x-x-x-x-x-x-x-|
|-3---0-5---0-7---|-0-3---3-3-3-2-2-|-3-3-3-3-3-2-2-3-|-3-3-3-3-3-3-3-3-|

|-----------------|-----------------|-----------------|-----------------|
|-----------------|-----------------|-----------------|-----------------|
|-----------------|-----------------|-----------------|-----------------|
|-----------------|-----------------|-----------------|-----------------|
|-----------------|-----------------|-----------------|-----------------|
|-7-7-7-7-7-7-7-7-|-7-7-7-7-7-8-8-7-|-7-8-8-8-8-8-8-8-|-8-8-8-8-8-8-8-8-|
PM......................................................................

|-----------------|-----------------|-----------------|-----------------|
|-----------------|-----------------|-----------------|-----------------|
|-----------------|-----------------|-----------------|-----------------|
|-----------------|-----------------|-----------------|-----------------|
|-----------------|-----------------|-----------------|-----------------|
|-7-7-7-7-7-7-7-7-|-7-7-7-7-7-7-7-7-|-5-5-5-5-5-5-5-5-|-3-3-3-3-3-3-3-3-|
PM......................................................................

Verse

|-----------------|-----------------|-----------------|-----------------|
|------(10)-------|-----------------|-----------------|-----------------|
|------------(12)-|-----------------|-----(11--11h12)-|-----------------|
|(12)-------------|-----------------|(12)-------------|-----------------|
|-----------------|-----------------|-----------------|-----------------|
|-7-7-7-7-7-7-7-7-|-7-7-7-7-7-8-8-7-|-7-8-8-8-8-8-8-8-|-8-8-8-8-8-8-8-8-|
PM......................................................................

|-----------------|-----------------|-----------------|-----------------|
|------(10)-------|-----------------|-----------------|-----------------|
|------------(12)-|-----------------|-----------------|--------(11-h12)-|
|--(12)-----------|-----------------|-----------------|-----------------|
|-----------------|-----------------|-----------------|-----------------|
|-7-7-7-7-7-7-7-7-|-7-7-7-7-7-7-7-7-|-5-5-5-5-5-5-5-5-|-3-3-3-3-3-3-3-3-|
PM......................................................................

|-----------------|-----------------|-----------------|-----------------|
|------(10)-------|-----------------|-----------------|-----------------|
|------------(12)-|-----------------|-----(11--11h12)-|-----------------|
|(12)-------------|-----------------|(12)-------------|-----------------|
|-----------------|-----------------|-----------------|-----------------|
|-7-7-7-7-7-7-7-7-|-7-7-7-7-7-8-8-7-|-7-8-8-8-8-8-8-8-|-8-8-8-8-8-8-8-8-|
PM......................................................................

|-----------------|-----------------|-----------------|-----------------|
|(10)-------------|-----------------|-----------------|(10)-------------|
|------(11)-------|(12)-------------|-----------------|------(11-11h12)-|
|-----------------|-----------------|-----------------|-----------------|
|-----------------|-----------------|-----------------|-----------------|
|-7-7-7-7-7-7-7-7-|-7-7-7-7-7-7-7-7-|-5-5-5-5-5-5-5-5-|-3---------------|
PM....................................................

Pre-Chorus

|-----------------|-----------------|-----------------|-----------------|
|-----------------|-----------------|-----------------|-----------------|
|-----------------|-----------------|-----------------|-----------------|
|-5---5-5-5-5-5-5-|-5-5-5-5-5-5-5-5-|-5-5-5-5-5-5-5-5-|-5-5-5-5-5-5-5-5-|
|-2---2-2-2-2-2-2-|-2-2-2-2-2-2-2-2-|-3-3-3-3-3-3-3-3-|-3-3-3-3-3-3-3-0-|
|-----------------|-----------------|-----------------|-----------------|

|-----------------|-----------------|-----------------|-----------------|
|-----------------|-----------------|-----------------|-----------------|
|-----------------|-----------------|-----------------|-----------------|
|-5-5-5-5-5-5-5-5-|-5-5-5-5-5-5-5---|-7-7-7-7-7-7-7-7-|-5-5-5-5-5-5-5---|
|-2-2-2-2-2-2-2-2-|-2-2-2-2-2-2-2-0-|-x-x-x-x-x-x-x-x-|-x-x-x-x-x-x-x---|
|-----------------|---------------0-|-5-5-5-5-5-5-5-5-|-3-3-3-3-3-3-3-0-|

|-----------------|-----------------|-----------------|-----------------|
|-----------------|-----------------|-----------------|-----------------|
|-----------------|-----------------|-----------------|-----------------|
|-5---5-5-5-5-5-5-|-5-5-5-5-5-5-5-5-|-5-5-5-5-5-5-5-5-|-5-5-5-5-5-5-5-5-|
|-2---2-2-2-2-2-2-|-2-2-2-2-2-2-2-2-|-3-3-3-3-3-3-3-3-|-3-3-3-3-3-3-3-0-|
|-----------------|-----------------|-----------------|-----------------|

|-----------------|-----------------|-----------------|-----------------|
|-----------------|-----------------|-----------------|-----------------|
|-----------------|-----------------|-----------------|-----------------|
|-5-5-5-5-5-5-5-5-|-5-5-5-5-5-5-5---|-7-7-7-7-7-7-7-7-|-5-5-5-5-5-5-5-5-|
|-2-2-2-2-2-2-2-2-|-2-2-2-2-2-2-2-0-|-x-x-x-x-x-x-x-x-|-x-x-x-x-x-x-x-x-|
|-----------------|---------------0-|-5-5-5-5-5-5-5-5-|-3-3-3-3-3-3-3-3-|

End Note

|-----------------|-----------------|
|-----------------|-----------------|
|-0~~~~~~~~~~~~~~~|~-~--------------|
|-2~~~~~~~~~~~~~~~|~-~--------------|
|-2~~~~~~~~~~~~~~~|~-~--------------|
|-0~~~~~~~~~~~~~~~|~-~--------------|

==================================================

Artist's: Blink 182
Song: Down
Album: Blink 182

X = Take Your Finger Off Then On Again

Intro
e------------------|
B------------------|
G------------------|    (For The First 4 Times You Play The Intro Make Sure
D-9999—x-9999-x-99-| x8  The Switch Is Up, Then When The Drums Come In
A-9999—x-9999-x-99-|     Switch It Down)
E-7777—x-7777-x-77-|

Verse
e-------------------------------------|
B-------------------------------------|
G-------------------------------------|
D-9999—x-9999-x-99-x-6666—x-8888-x-88-| x4
A-9999—x-9999-x-99—x-6666-x-8888-x-88-|
E-7777—x-7777-x-77-x-4444-x-6666-x-66-|

Pre-Chorus
e-----|
B-----|
G-----|
D—-2--|
A--2--|
E--0--|

Chorus
e---------------------------------------------------------------------------|
B---------------------------------------------------------------------------|
G---------------------------------------------------------------------------|
D-6666-x-6666-x-66-x-8888-x-8888-x-88-x-9999-x-9999-x-99-x-4444-x-4444-x-44-|
A-6666-x-6666-x-66-x-8888-x-8888-x-88-x-9999-x-9999-x-99-x-4444-x-4444-x-44-|
E-4444-x-4444-x-44-x-6666-x-6666-x-66-x-7777-x-7777-x-77-x-2222-x-2222-x-22-|

-------------------------------------|
-------------------------------------|
-------------------------------------|
-6666-x-6666-x-66-x-8888-x-8888-x-88-|
-6666-x-6666-x-66-x-8888-x-8888-x-88-|
-4444-x-4444-x-44-x-6666-x-6666-x-66-|

Play When Mark Start's Sing 'Down, Down, Down, Down'
e--------------------------------------------------------|
B--------------------------------------------------------|
G-4444-x-4444-x-44-x-------------------------------------|
D-4444-x-4444-x-44-x-2222-x-2222-x-22-x-6666-x-6666-x-66-|
A-2222-x-2222-x-22-x-2222-x-2222-x-22-x-6666-x-6666-x-66-|
E--------------------0000-x-0000-x-00-x-4444-x-4444-x-44-|

------------------|
------------------|
------------------|
-2222-x-2222-x-22-| x2
-2222-x-2222-x-22-|
-0000-x-0000-x-00-|

Pre-Verse
e------------------|
B------------------|
G------------------|
D-9999—x-9999-x-99-| x2 (Make Sure Switch Is Up)
A-9999—x-9999-x-99-|
E-7777—x-7777-x-77-|

Verse
e-------------------------------------|
B-------------------------------------|
G-------------------------------------|
D-9999—x-9999-x-99-x-6666—x-8888-x-88-| x4
A-9999—x-9999-x-99—x-6666-x-8888-x-88-|
E-7777—x-7777-x-77-x-4444-x-6666-x-66-|

Pre-Chorus
e-----|
B-----|
G-----|
D—-2--|
A--2--|
E--0--|

Chorus
e---------------------------------------------------------------------------|
B---------------------------------------------------------------------------|
G---------------------------------------------------------------------------|
D-6666-x-6666-x-66-x-8888-x-8888-x-88-x-9999-x-9999-x-99-x-4444-x-4444-x-44-|
A-6666-x-6666-x-66-x-8888-x-8888-x-88-x-9999-x-9999-x-99-x-4444-x-4444-x-44-|
E-4444-x-4444-x-44-x-6666-x-6666-x-66-x-7777-x-7777-x-77-x-2222-x-2222-x-22-|

-------------------------------------|
-------------------------------------|
-------------------------------------|
-6666-x-6666-x-66-x-8888-x-8888-x-88-|
-6666-x-6666-x-66-x-8888-x-8888-x-88-|
-4444-x-4444-x-44-x-6666-x-6666-x-66-|

Play When Mark Start's Sing 'Down, Down, Down, Down'
e--------------------------------------------------------|
B--------------------------------------------------------|
G-4444-x-4444-x-44-x-------------------------------------|
D-4444-x-4444-x-44-x-2222-x-2222-x-22-x-6666-x-6666-x-66-|
A-2222-x-2222-x-22-x-2222-x-2222-x-22-x-6666-x-6666-x-66-|
E--------------------0000-x-0000-x-00-x-4444-x-4444-x-44-|

------------------|
------------------|
------------------|
-2222-x-2222-x-22-| x2
-2222-x-2222-x-22-|
-0000-x-0000-x-00-|

Outro
e------------------|
B------12----12----|
G---11----11----11-|
D-9----------------| x16
A------------------|
E------------------|

===========================================

Blink 182 - The Fallen Interlude

Intro:
e|-17~-15/19~-----------------|
B|-----------------------17/5-|
G|-------------11h12p11-------|
D|----------------------------|
A|----------------------------|
E|----------------------------|

Main Riff:
e|---------------------|
B|-12-10-7h8----7h8----|
G|-12-11-7h9----7h9----|
D|---------------------|
A|---------------------|
E|---------------------| Repeat x4

End on:
e|-17/7-|
B|------|
G|------|
D|------|
A|------|
E|------|

Really want to play the keyboard part? Downstroke this:
e|--12--|
B|--12--|
G|--12--|
D|------|
A|------|
E|------|

=================================

  Go



x=Mute
1----------------------------------------------------------
2----------------------------------------------------------
3---9--9--9--9--9--9--9--9---------------------------------
4--10-10-10-10-10-10-10-10-----3-3-3-3-3-3-3-3-------------
5---7--7--7--7--7--7--7--7-----3-3-3-3-3-3-3-3-------------
6---8--8--8--8--8--8--8--8-X2--1-1-1-1-1-1-1-1-X2---------- X2

Verse
1------------------------------------------------------------------------
2------------------------------------------------------------------------
3------------------------------------------------------------------------
4------------------------------------------------------------------------
5---3-3-3-3-3-3-3-3-3-3-3-3-3-3-2-5--------------------------------------
6------------------------------------1-1-1-1-1-1-1-1-1-1-1-1-1-1-1-1----- X2

Chorus
1-----------------------------------------------
2-----------------------------------------------
3-----------------------------------------------
4---7-7-7-7-7-7-7-7--3-3-3-3-3-3-3-3------------
5---7-7-7-7-7-7-7-7--3-3-3-3-3-3-3-3------------
6---5-5-5-5-5-5-5-5--1-1-1-1-1-1-1-1------------ X2

Solo
1-----------------------------------------------
2-----------------------------------------------
3-----------------------------------------------
4-----------------------------------------------
5---3-5-7-3-3-2-3-5-3--3-5-3-3-2-3-3------------
6-----------------------------------------------

Verse 3
1------------------------------------------------
2------------------------------------------------
3------------------------------------------------
4------------------------------------------7-----
5------------------------------------------7-----
6------------------------------------------5-----

Pause
1-----------------------------------------------
2-----------------------------------------------
3-----------------------------------------------
4-----------------------------------------------
5-----------------------------------------------
6-----------------------------------------------

End 1
1------------------------------------------------------------------------
2------------------------------------------------------------------------
3---9--9--9--9--9--9--9--9----5-5-5-5--7-7-7-7--9-9-9-9-10--10--10--10---
4--10-10-10-10-10-10-10-10----x-x-x-x--x-x-x-x--x-x-x-x--x---x---x---x---
5---7--7--7--7--7--7--7--7----3-3-3-3--5-5-5-5--7-7-7-7--8---8---8---8---
6---8--8--8--8--8--8--8--8-X2-------------------------------------------- X3

End 2
1-------------------------------------------------
2-------------------------------------------------
3---9--9--9--9--9--9--9--9------------------------
4--10-10-10-10-10-10-10-10--3---------------------
5---7--7--7--7--7--7--7--7--3---------------------
6---8--8--8--8--8--8--8--8--1---------------------


==========================================
Asthenia 

Intro
|---------------------------------------------------------------------|
|-----7~------------------7~------------------------------------------|
|-7-------------7---6-7-------------7---6-7---------------------------|
|---0-------------0-----0-------------0-------------------------------|
|---------------------------------------------------------------------|
|---------------------------------------------------------------------|

Verse 4x
|---------------------------------------------------------------------|
|---------------------------------------------------------------------|
|-7-7-7-7-7-7-7-7-7-7-7-7-7-7-7-7-7-4-4-4-4-4-4-4-4-7-7-7-7-7-7-7-7---|
|-x-x-x-x-x-x-x-x-x-x-x-x-x-x-x-x-x-x-x-x-x-x-x-x-x-x-x-x-x-x-x-x-x---|
|-5-5-5-5-5-5-5-5-5-4-4-4-4-4-4-4-4-2-2-2-2-2-2-2-2-4-4-4-4-4-4-4-4---|
|---------------------------------------------------------------------|

Pre Chorus 2x

|---------------------------------------------------------------------|
|---------------------------------------------------------------------|
|-7-7-6-7-9----7-6----------------------------------------------------|
|-x-x-x-x-x-5x-x-x----------------------------------------------------|
|-5-5-4-5-7----5-4----------------------------------------------------|
|------------------2-2-2-2--------------------------------------------|
		     PM.......

Chorus 2x

|---------------------------------------------------------------------|
|---------------------------------------------------------------------|
|---------------------------------------------------------------------|
|---------------------------------------------------------------------|
|-----5-5-----5-5-----5-----5-5-----4-4-----4-------------------------|
|-2-2-----3-3-----3-3---5-5-----5-5-----5-5---------------------------|

Intro

|---------------------------------------------------------------------|
|-----7~------------------7~------------------------------------------|
|-7-------------7---6-7-------------7---6-7---------------------------|
|---0-------------0-----0-------------0-------------------------------|
|---------------------------------------------------------------------|
|---------------------------------------------------------------------|


Verse 2x
|---------------------------------------------------------------------|
|---------------------------------------------------------------------|
|-7-7-7-7-7-7-7-7-7-7-7-7-7-7-7-7-7-4-4-4-4-4-4-4-4-7-7-7-7-7-7-7-7---|
|-x-x-x-x-x-x-x-x-x-x-x-x-x-x-x-x-x-x-x-x-x-x-x-x-x-x-x-x-x-x-x-x-x---|
|-5-5-5-5-5-5-5-5-5-4-4-4-4-4-4-4-4-2-2-2-2-2-2-2-2-4-4-4-4-4-4-4-4---|
|---------------------------------------------------------------------|

Pre Chorus 2x

|---------------------------------------------------------------------|
|---------------------------------------------------------------------|
|-7-7-6-7-9----7-6----------------------------------------------------|
|-x-x-x-x-x-5x-x-x----------------------------------------------------|
|-5-5-4-5-7----5-4----------------------------------------------------|
|------------------2-2-2-2--------------------------------------------|
		     PM.......

Chorus 2x

|---------------------------------------------------------------------|
|---------------------------------------------------------------------|
|---------------------------------------------------------------------|
|---------------------------------------------------------------------|
|-----5-5-----5-5-----5-----5-5-----4-4-----4-------------------------|
|-2-2-----3-3-----3-3---5-5-----5-5-----5-5---------------------------|

Bridge

|---------------------------------------------------------------------|
|---------------------------------------------------------------------|
|-7-----------7----------11-----9----------7--------------------------|
|-x-14x-------x-14-------x—10x--x-4x-------x-14x----------------------|
|-5-----------5----------9------7----------5--------------------------|
|-------pause------pause-------------pause----------------------------|

|---------------------------------------------------------------------|
|---------------------------------------------------------------------|
|---------------------------------------------------------------------|
|-----------4-4-4-4-5-5-5-5-2-2-2-2-2-2-2-2-2-2-----------------------|
|-5-5-5-5-5-----------------------------------------------------------|
|---------------------------------------------------------------------|
PM.........

|---------------------------------------------------------------------|
|---------------------------------------------------------------------|
|---------------------------------------------------------------------|
|-----------------4-4-4-4-5-5-5-5-2-2-2-2-2-2-2-2-2-2-----------------|
|-5-5-5-5-------------------------------------------------------------|
|---------2-2-2-2-----------------------------------------------------|
PM...............

|---------------------------------------------------------------------|
|---------------------------------------------------------------------|
|---------------------------------------------------------------------|
|-----------------4-4-4-4-5-5-5-5-2-2-2-2-2-2-2-2-2-2-----------------|
|-5-5-5-5-9-9-9-9-----------------------------------------------------|
|---------------------------------------------------------------------|
PM...............

|---------------------------------------------------------------------|
|---------------------------------------------------------------------|
|---------------------------------------------------------------------|
|-----------------4-4-4-4-5-5-5-5-2-2-2-2-2-2-2-2-2-2--------7~-------|
|-5-5-5-5---------------------------------------------5-5--5-5~-------|
|---------3-3-3-3-----------------------------------------------------|
PM...............                                   PM......

Chorus 4x

|---------------------------------------------------------------------|
|---------------------------------------------------------------------|
|---------------------------------------------------------------------|
|---------------------------------------------------------------------|
|-----5-5-----5-5-----5-----5-5-----4-4-----4-------------------------|
|-2-2-----3-3-----3-3---5-5-----5-5-----5-5---------------------------|

Pre Chorus

|---------------------------------------------------------------------|
|---------------------------------------------------------------------|
|-7-7-6-7-9----7-6---------7-7-6-7-9-----------7----------------------|
|-x-x-x-x-x-5x-x-x---------x-x-x-x-x-5x--------x----------------------|
|-5-5-4-5-7----5-4---------5-5-4-5-7-----------5----------------------|
|------------------2-2-2-2—-------------end on------------------------|

===============================================================

 Intro (tabbed for guitar)
(0:10-0:15)Gtr. I
e|-----------------------------------------------------------------|
B|-----------------------------------------------------------------|
G|-----------------------------------------------------------------|
D|-4-4-4-4-4-4-4-4-4-4-4-4-4-4-4-4-2-2-2-2-2-2-2-2-2-2-2-2-2-2-2-2-|
A|-2-2-2-2-2-2-2-2-4-4-4-4-4-4-4-4-2-2-2-2-2-2-2-2-2-2-2-2-2-2-2-2-|
E|-2-2-2-2-2-2-2-2-2-2-2-2-2-2-2-2-4-4-4-4-4-4-4-4-0-0-0-0-0-0-0-0-|     

(0:16-0:21)
e|-----------------------------------------------------------------|
B|-----------------------------------------------------------------|
G|-----------------------------------------------------------------|
D|-4-4-4-4-4-4-4-4-4-4-4-4-4-4-4-4-6-6-6-6-6-6-6-6-2-2-2-2-2-2-2-2-|
A|-2-2-2-2-2-2-2-2-4-4-4-4-4-4-4-4-6-6-6-6-6-6-6-6-2-2-2-2-2-2-2-2-|
E|-2-2-2-2-2-2-2-2-2-2-2-2-2-2-2-2-4-4-4-4-4-4-4-4-0-0-0-0-0-0-0-0-|


           Verse 1 (tabbed for guitar)
(0:22-0:45)Gtr. I
e|-----------------------------------------------------------------|
B|-----------------------------------------------------------------|
G|-----------------------------------------------------------------|
D|-----------------------------------------------------------------|
A|-2-2-2-2-2-2-2-2-4-4-4-4-4-4-4-4-2-2-2-2-2-2-2-2-2-2-2-2-2-2-2-2-|
E|-2-2-2-2-2-2-2-2-2-2-2-2-2-2-2-2-0-0-0-0-0-0-0-0-0-0-0-0-0-0-0-0-|

(0:34-0:45)
(distortion) Gtr. II
e|------|
B|------|
G|------|Just play the whole (0:34-0:45)
D|------|part of the song
A|------|
E|-4444-|
   ....

           Pre Chorus (clean)
(0:46-0:57)Gtr. I
e|-------------------------------------------|
B|-------4---4-------4---4-------4-----------|
G|-----4---4-------4---4-------4---4---4---4-|2x
D|-------------------------------------------|
A|-2-2---------4-4-------------------0---0---|
E|-------------------------4-4---------------|

           Chorus (distortion)
(0:58-1:10)Gtr. II
e|------------------------------------------------------------------|
B|------------------------------------------------------------------|
G|-4-4-4-4-4-4-4-4-8-8-8-8-8-8-8-8----------------------------------|
D|-4-4-4-4-4-4-4-4-8-8-8-8-8-8-8-8-6-6-6-6-6-6-6-6-2-2-2-2-2-2-2-2--|2x
A|-2-2-2-2-2-2-2-2-6-6-6-6-6-6-6-6-6-6-6-6-6-6-6-6-2-2-2-2-2-2-2-2--|
E|---------------------------------4-4-4-4-4-4-4-4-0-0-0-0-0-0-0-0--|


           Pre Verse (clean)
(1:11-1:22)Gtr. I
e|-------------------------------------------|
B|-------4---4-------4---4-------4-----------|
G|-----4---4-------4---4-------4---4---4---4-|2x
D|-------------------------------------------|
A|-2-2---------4-4-------------------0---0---|
E|-------------------------4-4---------------|


           Verse (little distortion)
(1:23-1:47)Gtr. I
e|-------------------------|
B|-------------------------|
G|-------------------------|4x
D|-------------------------|
A|-6----6-------6--6-------|
E|---8----8-6-8------8-6-4-|


           Pre Chorus (clean)
(1:48-2:11)Gtr. I
e|-------------------------------------------|
B|-------4---4-------4---4-------4-----------|
G|-----4---4-------4---4-------4---4---4---4-|4x
D|-------------------------------------------|
A|-2-2---------4-4-------------------0---0---|
E|-------------------------4-4---------------|


           Chorus (distortion)
(2:12-2:35)Gtr. II
e|------------------------------------------------------------------|
B|------------------------------------------------------------------|
G|-4-4-4-4-4-4-4-4-8-8-8-8-8-8-8-8----------------------------------|
D|-4-4-4-4-4-4-4-4-8-8-8-8-8-8-8-8-6-6-6-6-6-6-6-6-2-2-2-2-2-2-2-2--|4x
A|-2-2-2-2-2-2-2-2-6-6-6-6-6-6-6-6-6-6-6-6-6-6-6-6-2-2-2-2-2-2-2-2--|
E|---------------------------------4-4-4-4-4-4-4-4-0-0-0-0-0-0-0-0--|


           Bridge (distortion)
(2:36-2:47)Gtr. II
e|------------------------------------------------------------------|
B|------------------------------------------------------------------|
G|-4-4-4-4-4-4-4-4-3-3-3-3-3-3-3-3-4-4-4-4-4-4-4-4-4-9-9-9-9-4-4-4--|
D|-x-x-x-x-x-x-x-x-x-x-x-x-x-x-x-x-x-x-x-x-x-x-x-x-x-x-x-x-x-x-x-x--|
A|-2-2-2-2-2-2-2-2-1-1-1-1-1-1-1-1-2-2-2-2-2-2-2-2-2-7-7-7-7-2-2-2--|
E|------------------------------------------------------------------|

           Bridge (clean)
(2:36-2:47)Gtr. I
e|------------------------------------|
B|-4---4---4---4-5-(3x)-4---4-5-4---4-|
G|---4---4---4------------4-------4---|
D|------------------------------------|
A|------------------------------------|
E|------------------------------------|

           Bridge Pt.2 (distortion)
(2:48-2:59)Gtr. II
e|-----------------------|
B|-----------------------|
G|-----------------------|
D|-----------------------|
A|-6--4--2--2h4-6--4--2--|
E|-----------------------|


           Chorus (distortion)
(3:13-3:38)Gtr. II
e|------------------------------------------------------------------|
B|------------------------------------------------------------------|
G|-4-4-4-4-4-4-4-4-8-8-8-8-8-8-8-8----------------------------------|
D|-4-4-4-4-4-4-4-4-8-8-8-8-8-8-8-8-6-6-6-6-6-6-6-6-2-2-2-2-2-2-2-2--|4x
A|-2-2-2-2-2-2-2-2-6-6-6-6-6-6-6-6-6-6-6-6-6-6-6-6-2-2-2-2-2-2-2-2--|
E|---------------------------------4-4-4-4-4-4-4-4-0-0-0-0-0-0-0-0--|


           Outro (clean)
(3:39-4:02)Gtr. I
e|--------------------------------------|
B|-4---4---4---4-5-(3x)-4---4-5-4---4-5-|
G|---4---4---4------------4-------4-----|
D|--------------------------------------|4x
A|--------------------------------------|
E|--------------------------------------|

=====================================================


Easy Target

Intro: (X2)
e|--------------------------------------------------------------------------|
B|--------------------------------------------------------------------------|
G|-------------222----------------------222---------------------------------|
D|-------------222----------------------222---------------------------------|
A|-4444-4444---000---22222---4444-4444--000--22222--------------------------|
E|-2222-2222---------00000---2222-2222-------00000--------------------------|

Verse: (X2)
e|--------------------------------------------------------------------------|
B|--------------------------------------------------------------------------|
G|--6666-6666-6666-6666--44--66-------6666-6666-6666-6666--44-66------------|
D|--xxxx-xxxx-xxxx-xxxx--xx--xx--7~---xxxx-xxxx-xxxx-xxxx--xx-xx--7~--------|
A|--4444-4444-4444-4444--22--44--x~---4444-4444-4444-4444--22-44--x~--------|
E|-------------------------------5~-------------------------------5~--------|

(You could possibly play the muted A power chord in the zero fret position, but
playing it in position five allows for a faster change between the C# and the A)

Interlude:
e|--------------------------------------------------------------------------|
B|--------------------------------------------------------------------------|
G|-7777-7777-2222--------7777-7777-2222-------7777-7777-2222----------------|
D|-7777-7777-2222--------7777-7777-2222-------7777-7777-2222----------------|
A|-5555-5555-0000-2222---5555-5555-0000-2222--5555-5555-0000-2222-----------|
E|----------------0000------------------0000-----------------0000-----------|

(In this case, conversely, you could play the A power chord in the fifth position
versus the zero position, but upon inspection of the song, you can tell that the
third note of the chord is played on the G string rather than up on the D string.
Where the high D string note would have a thicker sound, playing it on the second
fret of the G string gets you that "cutting" tone you hear in the recording.)

e|--------------------------------------------------------------------------|
B|--------------------------------------------------------------------------|
G|--7777-7777--6666-6666----------------------------------------------------|
D|--7777-7777--xxxx-xxxx----------------------------------------------------|
A|--5555-5555--4444-4444----------------------------------------------------|
E|--------------------------------------------------------------------------|

Outro: (X4-)
e|--------------------------------------------------------------------------|
B|--------------------------------------------------------------------------|
G|--------------------------------------------------------------------------|
D|--4/6/7/9\7--7/9/10-10/12\9--9-7--4/6/7/9\7--7/9/10-10/12\9--9-7----------|
A|--x/x/x/x\x--x/x/x --x/x \x--x/x--x/x/x/x\x--x/x/x --x/x \x--x/x----------|
E|--2/4/5/7\5--5/7/9---9/10\7--7/5--2/4/5/7\5--5/7/9---9/10\7--7/5----------|



====================================================


Artist: Blink 182
Song Title: All Of This
Album: Blink 182
Tuning: Standard

Intro
e------------------------------------------------
B------------------------------------------------
G------------------------------------------------
D--4/6/7/9\7--7/9/11--11/12\9-9\4--4/6/7/9\5--7--
A--0----------0-------0-------0----0----------0--
E--2/4/5/7\5--5/7/9---9-/10\7-7\2--2/4/5/7\5--5--

Verse
e--------------------------------------------------------------------
B--------------------------------------------------------------------
G--------------------------------------------------------------------
D--11-11-11-11-11-11-11-11-11-11-11-11-11-11-11-11-9-9-9-11-11-11-7--
A--0--0--0--0--0--0--0--0--0--0--0--0--0--0--0--0--0-0-0-0--0--0--0--
E--9--9--9--9--9--9--9--9--9--9--9--9--9--9--9--9--7-7-7-9--9--9--5--

Chorus
e-------------------------------------------------------------------
B-------------------------------------------------------------------
G-------------------------------------------------------------------
D--4-4-4-4-4-4-4-4-4-4-4-4-6-6-6-6-7-7-7-7-7-7-7-7-7-7-7-7-7-9-9-9--
A--0-0-0-0-0-0-0-0-0-0-0-0-0-0-0-0-0-0-0-0-0-0-0-0-0-0-0-0-0-0-0-0--
E--2-2-2-2-2-2-2-2-2-2-2-2-4-4-4-4-5-5-5-5-5-5-5-5-5-5-5-5-5-7-7-7--

Interlude
Guitar 1
e----------------------------------------------------------
B-----------0-0-------------------------0-0-----------0-0--
G--2--2--2--1-1--2--2--2--2-2--2--2--2--1-1--2--2--2--4-4--
D----------------------------------------------------------
A----------------------------------------------------------
E----------------------------------------------------------

Guitar 2 (This part's really hard to hear, I'm not sure if this is single
notes or octaves, listen to it and decide which you think sounds more right)
e-------------------------------------------------------------------
B-------------------------------------------------------------------
G-------------------------------------------------------------------
D-------------------------------------------------------------------
A-------------------------------------------------------------------
E--2-2-2-2-2-2-2-2-2-2-2-2-4-4-4-4-5-5-5-5-5-5-5-5-5-5-5-5-5-7-7-7--



====================================================================

Heres you letter

ntro: (Effected guitar part at very beggining not written)
e|--------------------------------------------------------------------------|
B|--------------------------------------------------------------------------|
G|---------7--7---7--7---4--4----------7--7---------------------------------|
D|--4--4---7--7---7--7---4--4---4--4---7--7---------------------------------|
A|--4--4---5--5---4--4---2--2---4--4---5--5---------------------------------|
E|--2--2------------------------2--2----------5-5-5-5-----------------------|

Second Section Of Verse 1: (00:24) Palm Muted In Backround
e|--------------------------------------------------------------------------|
B|--------------------------------------------------------------------------|
G|-----------------------6-4-7-7-7-7----------------------------------------|
D|-4--6--7-7-7-7-7-7--4--6-4-7-7-7-7----4-6-7~------------------------------|
A|-4--6--7-7-7-7-7-7--4--4-2-5-5-5-5----4-6-7~------------------------------|
E|-2--4--5-5-5-5-5-5--2---------------0-2-4-5~------------------------------|

Chorus:
e|--------------------------------------------------------------------------|
B|--------------------------------------------------------------------------|
G|----6----------7-7-7-7-----4--------7-7-7---------------------------------|
D|-7--6--2--6-6--7-7-7-7--7--4--2--6--7-7-7---------------------------------|
A|-7--4--2--6-6--5-5-5-5--7--6--2--6--5-5-5---------------------------------|
E|-5-----0--4-4-----------5-----0--4----------------------------------------|

Repeat Intro:
Repeat Verse on second part of Verse 2. (01:08)

Interlude:
e|--------------------------------------------------------------------------|
B|--------------------------------------------------------------------------|
G|-6-6-6-6--7-7-7-7------------------------7-7-7-7--------------------------|
D|-6-6-6-6--7-7-7-7-(X2)-4-4-4-4--6-6-6-6--7-7-7-7-(X2)---------------------|
A|-4-4-4-4--5-5-5-5------4-4-4-4--6-6-6-6--5-5-5-5--------------------------|
E|-----------------------2-2-2-2--4-4-4-4-----------------------------------|

Repeat Chorus: x2

Repeat Intro:

End On:
e|-----|
B|-----|
G|-----|
D|-4~--|
A|-4~--|
E|-2~--|

==========================================

I'm lost without you

Intro (after 2 bars)
|-----------------|-----------------|-----------------|-0---------------|
|-5---------------|-5---------------|-5---------------|-----------------|
|---2---2---------|-----------------|---2---2---------|---1---1---------|
|-----------------|---6---6---------|-----4-----------|-2-----------2---|
|-0---0-----------|-----------------|-----------------|-----------------|
|-----------------|-4---4-----------|-2---------------|-----0-----------|

|-----------------|-----------------|-----------------|-0---------------|
|-5---------------|-5---------------|-5---------------|-----------------|
|---2---2---------|-----------------|---2---2---------|---1---1---------|
|-----------------|---6---6---------|-----------------|-------------2---|
|-0---0-----------|-----------------|-----------------|-----------------|
|-----------------|-4---4-----------|-2---2-----------|-0---0-----------|

|-----------------|-----------------|-----------------|-0---------------|
|-5---------------|-5---------------|-5---------------|-----------------|
|---2---2---------|-----------------|---2---2---------|---1---1---------|
|-----------------|---6---6---------|-----------------|-------------2---|
|-0---0-----------|-----------------|-----------------|-----------------|
|-----------------|-4---4-----------|-2---2-----------|-0---0-----------|

|-----------------|-0-----0---------|-----------------|-----------------|
|-5---5-----------|-1---------------|-5-----5---------|-5-----5---------|
|-2---2-----------|-------1---------|-2-----2---------|-4-----4---------|
|-4---------------|---2-------------|---2---------2---|---2---------2---|
|---------4-------|-----------------|-0---0---------0-|-2---2-----2-----|
|-2---------------|-0---0---0-------|-----------------|-----------------|

|-----------------|-0-----0---------|-----------------|--------|--------|
|-5-----5---------|-----------------|-5-----5---------|-5~~~~~~|--------|
|-2-----2---------|-1-----1---------|-2-----2---------|-4~~~~~~|--------|
|---4-------------|---2---------2---|---2---------2---|-2~~~~~~|--------|
|-----------------|-----------------|-0---0-----0---0-|-2~~~~~~|--------|
|-2---2-------2---|-0---0-----0---0-|-----------------|--------|--------|

|-----------------|-----------------|-----------------|-----------------|
|-----------------|-----------------|-----------------|-----------------|
|-----------------|-----------------|-----------------|-----------------|
|-----------------|-----------------|-----------------|-----------------|
|-----------------|-----------------|-----------------|-----------------|
|-----------------|-----------------|-----------------|-----------------|

Chorus
|-------------------------|-------------------------|-------------------------|
|---------(10)--------(10)|------(10)---------(10)--|------(10)--------(10)---|
|---------(9)---------(9)-|------(9)----------(9)---|------(9)---------(9)----|
|---------(7)---------(7)-|------(7)----------(7)---|------(7)---------(7)----|
|-0-0------0---0-0-0---0--|-0-0-0-0---0-0-0-0--0----|-0---0-0---0-0-0-0-0---0-|
|-5-5------5---5-5-5---5--|-5-4-4-4---4-4-4-4--4----|-4\2-5-5---5-5-5-5-5---5-|

|-------------------------|-------------------------|-------------------------|
|---------(10)--------(10)|------(10)---------(10)--|------(10)--------(10)---|
|---------(9)---------(9)-|------(9)----------(9)---|------(9)---------(9)----|
|---------(7)---------(7)-|------(7)----------(7)---|------(7)---------(7)----|
|-0-----0---0-0-----0---0-|-0---0---0---0-0-0-0---0-|-0---0-0---0-0-0-0--0--0-|
|-2/4---4---4-4-----4---4-|-4/5-5---5---5-5-5-5---5-|-5\4-4-4---4-4-4-4--4--4-|

|-------------------------|-------------------------|
|---------(10)--------(10)|------(10)---------(10)--|
|---------(9)---------(9)-|------(9)----------(9)---|
|---------(7)---------(7)-|------(7)----------(7)---|
|-0---0-0---0-0-0-0-0---0-|-0----0---0-0-0-0-0----0-|
|-4\2-5-5---5-5-5-5-5---5-|-2/4--4---4-4-4-4-4----5-|

Fill 1
|------------|------------|
|------------|------------|
|------------|------------|
|------------|------------|
|-0~~~~~~~---|------------|
|-5~~~~~~~---|------------|

Verse (the notes high up are a synth/guitar)
|-----------------|-----------------|-----------------|-----------------|
|-----------------|-----------------|-----------------|-----------------|
|-----------------|-----------------|-----------------|-----------------|
|-----------------|-----------------|-----------------|-----------------|
|-0-0-0-0-0-0-00--|-7-7-7-7-7-7-7-7-|-0-0-0-0-0-0-0-0-|-7-7-7-7-7-7-7-0-|
|-2-2-2-2-2-2-22/4|-4-4-4-4-4-4-4-4-|-5-5-5-5-5-5-5-0-|-7-7-7-7-7-7-7-0-|

|-----------------|-----------------|-----------------|-----------------|
|-----------------|-----------------|-----------------|-----------------|
|-----------------|-----------------|-----------------|-----------------|
|-----------------|-----------------|-----------------|-----------------|
|-0-0-0-0-0-0-00--|-7-7-7-7-7-7-7-7-|-0-0-0-0-0-0-0-0-|-7-7-7-7-7-7-7-0-|
|-2-2-2-2-2-2-22/4|-4-4-4-4-4-4-4-4-|-5-5-5-5-5-5-5-0-|-7-7-7-7-7-7-7-0-|

|-------9-------9-|-------9-------9-|-----------------|---------------9-|
|----10------10---|--9-10----9-10---|---10-12---10-12-|-----10--12--10--|
|-11------11------|-----------------|-9--------9------|---9---9---9-----|
|-----------------|-----------------|-----------------|-----------------|
|-0-0-0-0-0-0-00--|-7-7-7-7-7-7-7-7-|-0-0-0-0-0-0-0-0-|-7-7-7-7-7-7-7-0-|
|-2-2-2-2-2-2-22/4|-4-4-4-4-4-4-4-4-|-5-5-5-5-5-5-5-0-|-7-7-7-7-7-7-7-0-|

|-------9-------9-|-------9-------9-|-----------------|-----------------|
|----10------10---|--9-10----9-10---|---10-12---10-12-|-----------------|
|-11------11------|-----------------|-9--------9------|-----------------|
|-----------------|-----------------|-----------------|-----------------|
|-0-0-0-0-0-0-00--|-7-7-7-7-7-7-7-7-|-0-0-0-0-0-0-0-0-|-7~~~~~~~~~~~~~~~|
|-2-2-2-2-2-2-22/4|-4-4-4-4-4-4-4-4-|-5-5-5-5-5-5-5-0-|-7~~~~~~~~~~~~~~~|

Interlude
|-5---5---5---5---|-7---7---7---7---|-5---5---5---5---|-7---7---7---7---|
|---5---5---5---5-|---5---5---5---5-|---5---5---5---5-|---5---5---5---5-|
|-----------------|-----------------|-----------------|-----------------|
|-----------------|-----------------|-----------------|-----------------|
|-----------------|-----------------|-----------------|-----------------|
|-----------------|-----------------|-----------------|-----------------|

|-5---5---5---5---|-7---7---7---7---|-5---5---5---5---|-7---7---7---7---|
|---5---5---5---5-|---5---5---5---5-|---5---5---5---5-|---5---5---5---5-|
|-----------------|-----------------|-----------------|-----------------|
|-----------------|-----------------|-----------------|-----------------|
|-----------------|-----------------|-----------------|-----------------|
|-----------------|-----------------|-----------------|-----------------|

|-5~~~~~~~~~~-----|-----------------|-----------------|-----------------|
|-----------------|-2---2-----------|-----------------|-2---2-----------|
|-----------------|---2---2---------|-------------2-4-|---2---2---------|
|-----------------|-----------2---2-|---6-6-----------|-----------2---2-|
|-0~~~~~~~~~~-----|-0---------------|-----------------|-----------------|
|-5~~~~~~~~~~-----|-----------------|-4---------------|-2---------------|
                    *Piano Interlude

|-----------------|-----------------|-----------------|-----------------|-------|
|-----------------|-2---2-----------|---------------0-|-2---2-----------|-------|
|---4-4-------4-2-|---2---2---------|---1-1-------2---|---2---2---------|-------|
|-----------------|-----------2---2-|-----------------|-----------2---2-|---4-4-|
|-----------------|-0---------------|-2---------------|-4---------------|-0-----|
|-0---------------|-----------------|-----------------|-----------------|-------|

Chorus 2
|-5---5---5---5---|-7---7---7---7---|-5---5---5---5---|-7---7---7---7---|
|---5---5---5---5-|---5---5---5---5-|---5---5---5---5-|---5---5---5---5-|
|-----------------|-----------------|-----------------|-----------------|
|-----------------|-----------------|-----------------|-----------------|
|-----------------|-----------------|-----------------|-----------------|
|-----------------|-----------------|-----------------|-----------------|


==================================

Anthem Part Two

intro(clean)
-3---3---1---1---0---0---1---1-----------------------
---1---1---1---1---1---1---1---1---------------------
-----------------------------------------------------
-----------------------------------------------------
-----------------------------------------------------
-----------------------------------------------------

Then This(distortion)
-----------------------------------------------------
-----------------------------------------------------
-----------------------------------------------------
---0h3--2---0h3---2---0h3---2----0----0--------------
-33---33--33----33--33----33--33---33----------------
-----------------------------------------------------

-----------------------------------------------------
-----------------------------------------------------
-9---10---9---5---7--------9--10--5------------------
-----------------------------------------------------
-7----8---7---3---5--------7---8--3------------------
-----------------------------------------------------

-----------------------------------------------------
-----------------------------------------------------
-----------------------------------------------------
-5--let ring-----------------------------------------
-3-----------333333333--00000000---------------------
---------------------------------11111111------------
P.m.         .........  ........ ........

Bass Interlude for guitar
-----------------------------------------------------
-----------------------------------------------------
-----------------------------------------------------
-----------------------------------------------------
---7---------5--------3------------------------------
-5---5-----3---3----1--------------------------------

Chorus
-----------------------------------------------------
-----------------------------------------------------
-----------------------------------------------------
-------5-----------5------2-----5-----2--------------
-3--3--3--5--3--3--3--5---0--3--3--5--0--3-----------
-0--1-----3--0--1-----3------1-----3-----1-----------
comments
We did not receive enough feedback on this tab! Please rate:
print report bad tab
1 2 3 4 5
I want to post or [tab]
guest
You may want to rate the tab now too:
select rating
Please do not post tabs as comments. Select "correction" instead!