Oops, an error
Loading. Please wait.

Cheshire Cat Bass Tab

7,357 views 6 this week
no commentswrite comment
1 2 3 4 5
accurate
x 6
Autoscroll
+/-
esc
set tempo
stop
Contributor
WARNING: You are trying to view
                                    content from Ultimate-Guitar.com
                                    in an unauthorized application,
                                    which is prohibited.

                                    Please use an official Ultimate
                                    Guitar Tabs application for iPhone,
                                    iPad or Android to access legitimate
                                    chords, guitar, bass, and drum tabs
                                    from Ultimate-Guitar.com database.

                                    Type "ultimate guitar tabs" in Apple
                                    App Store's or Android Market's
                                    search to find the application.
1.Carousel

2.M+M's

3.Fentoozlen

4.Touchdown Boy

5. Strings

6.Peggy seu

7.Sometimes

8.Does my breath smell?

9.Cacophony

10.Tv

11.Toast And Bananas

12.Wasting time

13.Romeo and Rebaca

Carousel

Intro
G|--11-11--12--14--12-11---------6-6--7--9--7--6---|
D|-0---------------------12----7-----------------7-|
A|-------------------------------------------------|
E|-------------------------------------------------|


G|--9-9-11-12-11-9-11------7-----7---7-|
D|-9-------------------5-5---5-5---5---|
A|-------------------------------------|
E|-------------------------------------|


G|--11-11--12--14--12-11---------6-6--7--9--7--6---|
D|-0---------------------12----7-----------------7-|
A|-------------------------------------------------|
E|-------------------------------------------------|


G|---9-9-11-12-12-11-11--77777777-11-11-11-11-9999-11-11-11-11-|
D|-9---------------------55555555-0--0--0--0--7777-9--9--9--9--|
A|-------------------------------------------------------------|
E|-------------------------------------------------------------|


G|--7777
D|--5555
A|------|
E|------|


G|----------------------------------------|
D|----------------------------------------|
A|-55555555-------------------------------|
E|-----------55555555--77777777--33333333-|

G|-11-11-11-11-11-11-11-11--99999999--11-11-11-11-11-11--77777777-|
D|----------------------------------------------------------------|
A|----------------------------------------------------------------|
E|----------------------------------------------------------------|

Bridge
G|---------------------------------------------------|
D|---------------------------------------------------|
A|-55555555-7----------------------10-10-10-10--9--7-|
E|------------55555555--77777777-9-------------------|


G|---------------------------------------------------|
D|---------------------------------------------------|
A|-55555555-7----------------------10-10-10-10--9--7-|
E|------------55555555-7--33333333-------------------|


Verse X4
G|------------------------------------------------------------|
D|------------------------------------------------------------|
A|--55555555--------------------10-10-10-10-10-10-10-10-10-10-|
E|------------55555555-77777777-------------------------------|

Chorus X4
G|-----------------------------------|
D|-----------------------------------|
A|-55555555--77777777--12-x8---10----|x8
E|-----------------------------------|

Bridge
G|---------------------------------------------------|
D|---------------------------------------------------|
A|-55555555-7----------------------10-10-10-10--9--7-|
E|------------55555555--77777777-9-------------------|


G|---------------------------------------------------|
D|---------------------------------------------------|
A|-55555555-7----------------------10-10-10-10--9--7-|
E|------------55555555-7--33333333-------------------|

Verse X4
G|------------------------------------------------------------|
D|------------------------------------------------------------|
A|--55555555--------------------10-10-10-10-10-10-10-10-10-10-|
E|------------55555555-77777777-------------------------------|

Slows down...
G|-11-11-11-11-11-11-11-11--99999999-11-x8--77777777-|
D|---------------------------------------------------|
A|---------------------------------------------------|
E|---------------------------------------------------|


Guitar Solo Part
G|---------------------------|
D|---------------------------|
A|-5-------------------------|
E|--------5-------7--------3-|

Chorus X4
G|-----------------------------------|
D|-----------------------------------|
A|-55555555--77777777--12-x8---10----|x8
E|-----------------------------------|


M+M's

G:-----------------------------------------------------------------|
D:-2-2-2-2-2-2-2-2-------------------------------------------------|
A:-----------------2-2-2-2-2-2-2-2-4-4-4-4-4-4-4-4-0-0-0-0-0-0-0-0-|
E:-----------------------------------------------------------------|

G:-----------------------------------------------------------------|
D:-----------------------------------------------------------------|
A:-----------------2-2-2-2-2-2-2-2-4-4-4-4-4-4-4-4-0-0-0-0-0-0-0-0-|
E:-0-0-0-0-0-0-0-0-------------------------------------------------|

Chorus
G:--------------------------------|
D:--------------------------------|
A:------------------------2-2-2-2-|
E:2-2-2-2-5-5-5-5-0-0-0-0---------|

Fentoozler


G/----------------------------------------------------------|
D/----------------------------------------------------------|
A/-----99-11-9-----7976-------------------------------------|
E/77777-------77777-----------------------------------------|

G/----------------------------------------------------------|
D/----------------------------------------------------------|
A/----------------------------------------------------------|
E/7777-999-11-12-11-7---------------------------------------|

G/----------------------------------------------------------|
D/----------------------------------------------------------|
A/---7676---------------------------------------------------|
E/7-0----9--------------------------------------------------|


Touchdown Boy

Riff 1
G:-*-----------*-----------------------------------------------------|
D:-*-----------*-----------------------------------------------------|
A:-*--0000--*--7-5---------------------------------------------------|
E:-*-----------*--------7-777-5-4-0-000------------------------------|
only play bit in between stars on the first time

Riff 2
G:------------------------------------------------------------------|
D:------------------------------------------------------------------|
A:-7----------------------------------------------------------------|
E:--------9-----7-----5---------------------------------------------|

Riff 3
G:-------------------------------------------------------------------|
D:-------------------------------------------------------------------|
A:-777---------------------------------------------------------------|
E:--------777--555--777----------------------------------------------|

Riff 4
G:-----------------------------------------------------------------|
D:-----------------------------------------------------------------|
A:-7---------------------------------------------------------------|
E:--------------7------------5-------------77777777----------------|

Riff 5
G:--------------------------------------------------------------------|
D:--------------------------------------------------------------------|
A:-7777---------------------------------------------------------------|

E:-----------9999---7777---5555-------------------------------------------------

Riff 6
G:----------------------------------------------------------------|
D:----------------------------------------------------------------|
A:-77777777-------------------------------------------------------|
E:-----------------77777777--55555555--77777777-------------------|


Srings

verse (also guitar solo)
G--------------------------------------|
D-------------------22222222--55555555-|
A-55555555-----------------------------|
E----------55555555--------------------|

chorus
G--------------------|
D----------5555-3333-|
A-33333333-----------|
E--------------------|


song order:
verse (intro) x4
verse         x2
chorus        x4
verse         x4
chorus        x4
verse (guitar solo x2
chorus        x4

Peggy Seu


Intro X2 im not totally sure how to play it
G|--------------------------------------|but
D|--------------------------------------|i think
A|55555555--------55555555--9999-7777---|it goes
E|--------55555555----------------------|like
this.
the 9's and 7's might be played a couple
for times then 4 times.

Verse X4
G|--------------------------------|
D|--------------------------------|
A|-----------------5xxxxxx--2-4-2-|
E|-5xxxxxx-2xxxxxx----------------|

Chorus X2
G|--------------------------|
D|--------------------------|
A|-55555555--------55555555-|
E|---------55555555---------|

Chorus continued...
G|------------------|
D|------------------|
A|---------77777777-|
E|--555555----------|

Back to intro X2
Back to verse X4
Back to chorusX2


Mark Tom & Travis Show Bass solo - X4
G|--------------------------------------|
D|--------------------------------------|
A|------------------------5-5-5-5-5-7-5-|
E|5-5-5-5-/7/-0-0-0-0-0-----------------|

Solo continued...
G|-------------------------------------|
D|-------------------------------------|
A|----------------------7-7-7-7-7------|
E|5-5-5-5-/7/-0-0-0-0-0----------------|

Solo continued again...
G|-------------------------------------|
D|-------------------------------------|
A|-5-5-5-5-7-5-------------------------|
E|-------------------------------------|

Sometimes


RIFF #1
G:----------------------------------------------|
D:----------------------------------------------|
A:------3333------5555--------------------------|
E:-3333------3333-------------------------------|

RIFF #2 ("Sometimes all I...")
G:------------------------------------------------|
D:------------------------------------------------|
A:-33333333-------------------33333333------------|
E:----------33333333-00000000---------------------|

RIFF #3
G:------------------------------------------------|
D:------------------------------------------------|
A:------------------333---------------------------|
E:-3333333-00000000-------------------------------|

*Order*
Riff 1 x 10
Riff 2 x 1
Riff 1 x 8
Riff 2 x 1
Riff 1 x 2

Does Breath Smell?


Part A:
G:--------------|
D:----33----55--|
A:-33----33-----|
E:--------------|

Part B:
G:----------------------|
D:----------------5555--|
A:-3333------3333-------|
E:------7777------------|

Part C:
G:----------------------|
D:------3333-5555-3333--|
A:-3333-----------------|
E:----------------------|

Bridge:
G:----------------------------------------------------------|
D:----------------------------------------------------------|
A:-88888-10-10-10-10-10-33333-------88888-10-10-10-10-10-3--|
E:----------------------------55555-------------------------|

Cacophony

Intro/Verse 1 & 2:
G|----------------------------9-------------|
D|-----10---------10-------------------10---| x6
A|-7-7----7-10-10----10-12-12---12-8-8----8-|
E|------------------------------------------|

Chorus:(Sometimes I don't feel...)
G|-----------------------------------------|
D|-----------------------------------------|
A|-12-12-12-12-12-12-12-12-8-8-8-8-8-8-8-8-|
E|-----------------------------------------|

G|--------------------------------------------------------------------|
D|--------------------------------------------------------------------|
A|-12-12-12-12-12-12-12-12-10-10-10-10-10-10-10-10-10-8-8-8-8-8-8-8-8-|
E|--------------------------------------------------------------------|


Verse 3
Riff 1:
G|--------------------------------------------------------------|
D|--------------------------------------------------------------| x2
A|-----------------8-8-8-8-8-8-8-8-7-7-7-7-7-7-7-7-8-8-8-8-8-10-|
E|-8-8-8-8-8-8-8-8----------------------------------------------|


Riff 2:(I'd think of all the things...)
G|-----------------------------------------------------------------|
D|-----------------7-7-7-7-7-7-7-7---------------------------------| x4
A|---------------------------------8-8-8-8-8-8-8-8-8-8-8-8-8-8-8-8-|
E|-8-8-8-8-8-8-8-8-------------------------------------------------|


Riff 1 x1


Riff 3:(Will there ever be...)
G|---------------------------------------------------------------------|
D|---------------------------------------------------------------------|
A|-7-7-7-7-8-8-8-8---------10-10-10-10-7-7-7-7-8-8-8-8-----------------|
E|-----------------8-8-8-8-----------------------------8-8-8-8-8-8-8-8-|

G|-----------------------------------------------------------------|
D|-----------------------------------------------------------------|
A|-7-7-7-7-8-8-8-8---------10-10-10-10-7-7-7-7---------10-10-10-10-|
E|-----------------8-8-8-8---------------------8-8-8-8-------------|

Riff 1 x2
Chorus x1

End
E|-8-|


Tv

intro:
G:--5---5---/10---10---/5---5---/10---10---/|
D:-3-333-3-/8--888--8-/3-333-3-/8--888--8-/-|
A:------------------------------------------|
E:------------------------------------------|

cont:
G:-5---5---/10---10---/-17------17----/10---10-|
D:3-333-3-/8--888--8-/15--151515--15-/8--888--8|
A:---------------------------------------------|
E:---------------------------------------------|

cont:
G:------3333-0000-3333------3333-0000-3333|
D:-3333----------------3333---------------|
A:----------------------------------------|
E:----------------------------------------|

cont:
G:----------33333333----------33333333|
D:-33333333----------33333333---------|
A:------------------------------------|
E:------------------------------------|

cont:
G:------3333-0000-5555------3333-0000-5555--|
D:-3333----------------3333-----------------|
A:------------------------------------------|
E:------------------------------------------|

verse:
G:----3>------------------------------------|
D:-3>---------------------------------------|
A:------------------------------------------|
E:------------------------------------------|

chorus:
G:------3333-0000-5555------3333-0000-5555---|
D:-3333----------------3333----------------3>|
A:-------------------------------------------|
E:-------------------------------------------|
.


Toast And Bananas


INRO

G:---------------------------------------------------------------|
D:---------------------------------------------------------------|
A:-00000--54545454-----------------------------------------------|
E:---------------------------------------------------------------|

VERSE pt 1

G:-----------------------------------------------------------------|
D:-----------------------------------------------------------------|
A:-00000000-77777777-99999999-55555555-----------------------------|
E:-----------------------------------------------------------------|

VERSE pt 2

G:---------------------------------------------------------------|
D:---------------------------------------------------------------|
A:--000--777--999-555--------------------------------------------|
E:---------------------------------------------------------------|

VERSE VARIATIONS (listen to CD to find when to play them)

G:---------------------------------------------------------------|
D:---------------------------------------------------------------|
A:-00000-77777-55555555------------------------------------------|
E:---------------------------------------------------------------|

G:---------------------------------------------------------------|
D:---------------------------------------------------------------|
A:-00000-77777-55555-77777---------------------------------------|
E:---------------------------------------------------------------|

end on

A:---0----------------------


Wasting time

Intro/Chorus:
G:-----------------------------------------------------|
D:-----------------------------------------------------|
A:-----------------------------------------------------|
E:-5-5-5-5--0-0-0-0-0-0-0-0--9-9-9-9-9--7-7-7-7-7-7-7--|
Pre-Verse
G:--------------------------------------------------------------------|
D:--------------------------------------------------------------------|
A:--------------------------------------------------------------------|
E:-5-5-5-5--0-0-0-0-0-0-0-0---9-9-9-9-9-9-9-9-9-9--7-7-7-7-7-7-7-7-7--|

G:--------------------|
D:--------------------|
A:--------------------|
E:-5-5-5-5-5-5-5-5-5--|

Verse:
G:---------------------------------------------------------------------|
D:---------------------------------------------------------------------|
A:---------------------------------------------------------------------|
E:--0-0-0-0-0-0-0-0--5-5-5-5-5-5-5-5--9-9-9-9-9-9-9-9--7-7-7-7-7-7-7-7-|


13 Romeo And Rebaca

Intro Part 1 (x2)
G|-----9-----9--9\----11---11--11\------13-----13--13\------14-----14--14-|
D|-7-7---7-7---7-\-9-9--9-9---9--\-11-11--11-11--11--\-12-12--12-12--12---|
A|------------------------------------------------------------------------|
E|------------------------------------------------------------------------|

Intro Part 2 (x2)
G|-----9-----9---9\----11----11--11\-|
D|-7-7-7-7-7-7-7-7\-9-9-9-9-9-9-9-9\-|
E|-----------------------------------|
A|-----------------------------------|
               *Contunued*
G|-------13-------13----13\-------14-------14----14-|
D|-11-11-11-11-11-11-11-11\-12-12-12-12-12-12-12-12-|
A|--------------------------------------------------|
E|--------------------------------------------------|

Intro Part 3 (x2)
G|-----9--11-9-9--------9--11-9-9---------9---11-9-9---------11-11-11-11-9-9-|
D|-7-7--7--------7--9-9---9-------9--11-11--11-------11--9-9-----------------|
E|---------------------------------------------------------------------------|
A|---------------------------------------------------------------------------|

Verse (x4)
G|-------------------------------------|
D|-------------------------------------|
E|-00000000----------------------------|
A|----------00000000-22222222-00002000-|

Chorus (x2) {Faster}
G|-------------------------------------|
D|-------------------------------------|
E|-33333333-00000000-------------------|
A|-------------------33333333-11111111-|

Verse (x4)
Chorus (x2)

Bridge (x2)
G|------------------------|
D|-----0-------222h3-0000-|
E|-333--------------------|
A|-------3333-------------|

Pre-Ending (x4)
G|---------------------|
D|---------------------|
E|-0000-2222-4444-5555-|
A|---------------------|

Verse (x2)
End (let ring)
A|-0-
comments
print report bad tab
I want to post or [tab]
guest
You may want to rate the tab now too:
select rating
Please do not post tabs as comments. Select "correction" instead!