Oops, an error
Loading. Please wait.

Dude Ranch Bass Tab

ver2
ver2

Album

More versions @911Tabs.com
6,400 views 6 this week
6 commentsread comments
1 2 3 4 5
worth learning
x 12
add to favorites launch autoscroll
font size
0
reset
Autoscroll
+/-
esc
set tempo
stop
Contributor
WARNING: You are trying to view
                                    content from Ultimate-Guitar.com
                                    in an unauthorized application,
                                    which is prohibited.

                                    Please use an official Ultimate
                                    Guitar Tabs application for iPhone,
                                    iPad or Android to access legitimate
                                    chords, guitar, bass, and drum tabs
                                    from Ultimate-Guitar.com database.

                                    Type "ultimate guitar tabs" in Apple
                                    App Store's or Android Market's
                                    search to find the application.
--Pathetic
Intro
G------------------------------------------------------------------|
D-9-9-9-9-9-9-9-9-9-9-9-9-9-9-9-9-9-9-9-9-9-9-9-9-9-9-9-9-9-9-9-9--|
A-6-6-6-6-6-6-6-6-7-7-7-7-7-7-7-7-7-7-7-7-7-7-7-7-7-7-7-7-7-7-7-7--|
E------------------------------------------------------------------|

Verse
G----------------------------------------------------------------------------------------|
D-------------------------------------------------4--4-4---4-4-4--4-4-4---4-4-4----------|
A--2---2-2----2--2-2--2---2--2---2--2-2--------------------------------------------------|
E----------------------------------------------------------------------------------------|

Chorus
G-------------------------------------------------------------------------------|
D-------------------------------------------------------------------------------|
A-------------------------------2-2-2-------------------------------2-2-2-------|
E-4-4---4-4-4---4-4-4---4--------2-2---2-2-2---2-2-2---2------------------------|

G----------------------------------------------------------------------------------|
D----------------------------------------------------------------------------------|
A----------------------------------------------------------------------------------|
E-0-0---0-0-0---0-0-0---0-0-0--0-0-0---0-0-0---0-0-0---0-0-0---0-------------------|

End
G-----------|
D-----------|
A-2-2-2-----|
E-----------|

--Voyeur
Intro riff:
G------------|
D------------|
A----10-8-7--|
E--8---------|

Verse:
G-------------------------------------|
D-------------------------------------|
A-3-3-3-3-3-3-3-3---------------------|
E-----------------5-5-5-5--1-1-1-1-1--|

Chorus:
G---------------------------------------------------------------------|
D----------------------------3----------------------------------------|
A--------------------3-3-3-3---3-3-3-3---------------------3-3-3-3----|
E--3-3-3-3--1-1-1-1--------------------3--3-3-3-3--1-1-1-1--------3-3-|

Bridge:(I'll bet this last time's...)
G------------------------------------|
D---------------------------3-3-3-3--|
A-3-3-3-3----------------------------|
E---------3-3-3-3--5-5-5-5-----------|

Bass Solo
G--------------------------------------------------------|
D-3333--555555-33--55-3333--555555-33--55----------------|
A-----33---------33-------33---------33------------------|
E--------------------------------------------------------|

--Dammit
Intro
G------------|
D------------|
A-3----------|
E---3-5-1----| (Not really played but I play it for fun)

Intro 2/Verse/Chorus
G----------------------------------------------------------------------------------------|
D----------------------------------------------------------------------------------------|
A-3-3-3-3-3-3-3-3------------------------------------------------------------------------|
E-----------------------3-3-3-3-3-3-3-3-5-5-5-5-5-5-5-5-1-1-1-1-1-1-1-1------------------|

Bridge
G--------------------|
D--------------------|
A-3---------3--------|
E----3-5-1---5-1-----|

--Boring
Intro:
G:---------------------------|
D:---------------------------|
A:-0-0-0-0-0-0--2-2-2-2-2-2--|
E:---------------------------|

Verse:
G---------------------------|
D---------------------------|
A------5-5-5-------5-5-5----|
E-5-5-5-------5-5-5---------|

Chorus:
G--------------------------------------------------------------------|
D--------------------------------------------------------------------|
A-----4-4---5-7-7-----4-4---5-7-7-----4-4---5-7-7----4-4---7-7-7-7---|
E-5-5-----4-------5-5-----4-------5-5-----4-------5-5----4-----------|

Bridge:
G----------------------------------------------------------------|
D-7-7-7--6-6-6------------------------6-6-6----------------------|
A--------------7-7-7-7-7-7-7-7--5-5-5-------7-7-7-7-7-7-7-7------|
E------------------------------------------------------------5-5-|

--Dick Lips
Intro

G-----------------------------------------------------------------|
D-----------------------------------------------------------------|
A-0-0-0-0-0-0-0-0-0-0-0-0-0-0-5-5-5-5-5-5-5-5-7-7-7-7-7-7-7-7-7-7-|
E-----------------------------------------------------------------|

Chorus (end on E)

G-----------------------------------------------------------------|
D-----------------------------------------------------------------|
A-4-4-4-4-4-4-4-4-5-5-5-5-5-5-5-5-0-0-0-0-0-0-0-0-7-7-7-7-7-7-7-7-|
E-----------------------------------------------------------------|

Post Chorus

G-------------------------------------|
D-------------------------------------|
A-4-4-4-4-4-4-5-5-5-5-5-5-7-7-7-7-7-7-|
E-------------------------------------|

Part After Tom yells Alright

G----------------------------------------|
D----------------------------------------|
A-0-0-0-0-0-0-0--5--4--7-7-7-7-5-5-5-5-5-|
E----------------------------------------|

--Waggy
Pre-Verse

G----------------------------------------------------|
D------------444444-------------------444444---------|
A-00000000000------555555-000000000000------555555---|
E----------------------------------------------------|

Verse

G----------------------------------------------------|
D------------444444-------------------444444---------|
A-00000000000------555555-000000000000------555555---|
E----------------------------------------------------| x2

Second time, let 0 ring, then play the rest as usual

Chorus

G----------------------------------------------------|
D----------------------------------------------------|
A----55555-22222222----55555-00000000----------------|
E-222---------------222------------------------------| x2

Pre-Verse

G----------------------------------------------------|
D------------444444-------------------444444---------|
A-00000000000------555555-000000000000------555555---|
E----------------------------------------------------|

Verse

G----------------------------------------------------|
D------------444444-------------------444444---------|
A-00000000000------555555-000000000000------555555---|
E----------------------------------------------------| x2

Second time, let 0 ring, then play the rest as usual

Chorus

G----------------------------------------------------|
D----------------------------------------------------|
A----55555-22222222----55555-00000000----------------|
E-222---------------222------------------------------| x2

Bridge/Interlude

G----------------------------------------------------|
D------------444444-------------------444444---------|
A-00000000000------555555-000000000000------555555---|
E----------------------------------------------------| x2

Pre-Chorus

G----------------------------------------------------|
D------------444444-------------------444444---------|
A-00000000000------555555-000000000000------555555---|
E----------------------------------------------------| x2

Chorus

G----------------------------------------------------|
D------------444444-------------------444444---------|
A-00000000000------555555-000000000000------555555---|
E----------------------------------------------------| x2

Ending

G----------------------------------------------------|
D----------------------------------------------------|
A-000000000000------55-7-5-4-0-----------------------|
E-------------222222---------------------------------|

--Enthused
Intro
G|----------------------------------------------------------------|
D|--------------------------------9---9---9-9-9-9-----------------|
A|5---5---5-5-5-5-----------------7---7---7-7-7-7-----------------|
E|----------------------------------------------------------------|

G--------------------9---9-9---9-9-9-9---------------------------------|
D-11---11---11-11-11-7---7-7---7-7-7-7-5---5---5-5-5-5---5-5-5-5-5-5-5-|
A-9----9----9--9--9----------------------------------------------------|
E----------------------------------------------------------------------|

G-------------------------------------------------------------------|
D-------------------------------------------------------------------|
A-5----5---5-5-5-5---5-5-5-5-5-5-5-7---7---7-7-7-7---7-7-7-7-7-7-7--|
E-------------------------------------------------------------------|

After Intro
G------------------------------------------------------------------|
D---------------7---7-7---7-7-7-7-5---5---5-5-5-5------------------|
A-9---9---9-9-9----------------------------------------------------|
E------------------------------------------------------------------|

Interlude
G-----------------------------------------------------------------|
D-----------------------------------------------------------------|
A-5-5---5-5-5---5-5-5---5-5-5-5---2-2---2-2-2---2-2-2---2-2-2-2---|
D-----------------------------------------------------------------|

Screw it you know the string already
-----------------------------------------------------------------|
-----------------------------------------------------------------|
-----------------------------------------------------------------|
-5-5---5-5-5---5-5-5---5-5-5-5---3-3---3-3-3---3-3-3-3-3-3-3-3-3-|

----------------------------------------------------------------|
----------------------------------------------------------------|
----------------------------------------------------------------|
5-5---5-5-5---5-5-5---5-5-5-5---3-3---3-3-3---3-5-5-5-5-5-5-5-5-|

Bridge
----------------------------------------------------------------|
----------------------------------------------------------------|
5-5-5-5-5-5-5-5-------------------------------------------------|
----------------0-0-0-0-0-0-0-0-3-3-3-3-3-3-3-3-5-5-5-5-5-5-5-5-|

Verse
G---
D---
A-5- (Hold that for the entire verse pretty much. Strike it when it gets to soft though)
E---

Wait for about twelve measures

------------------------------------------------------------------------|
------------------------------------------------------------------------|
-------17-17-17\5-5-5-5-5-5-5-5-7-7-7-7-7-7-7-7-10-10-10-10-10-10-10-10-|
------------------------------------------------------------------------|

--------------------------------------------------------|
--------------------------------------------------------|
12-12-12-12-12-12-12-12-5-5-5-5-5-5-5-5-7-7-7-7-7-7-7-7-|
--------------------------------------------------------|

---------------------------------------------|
---------------------------------------------|
10-10-10-10-10-10-10-10-12---12---12---12\\\-|
---------------------------------------------|

Guitar Solo (Wait 8 Bars)
-------------------------------------------------------------------|
-------------------------------------------------------------------|
5-5-5-5-5-5-5-5-2-2-2-2-2-2-2-2------------------------------------|  x2
-------------------------------5-5-5-5-5-5-5-5-3-3-3-3-3-3-3-3-----|

------------------------------------------------------------------------|
------------------------------------------------------------------------|
5-5-5-5-5-5-5-2---2-2-2-2-2-2-2-0-0-0-0-0-0-0-10---10-10-10-10h12-10\\\-|
------------------------------------------------------------------------|

----------------------------------------------------------------|
----------------------------------------------------------------|
5-5-5-5-5-5-5-2---2-2-2-2-2-2-2-0-0-0-0-0-0-0-------------------|
----------------------------------------------3---3-3-3-3-3-3-3-|

Verse 2
----------------------------------------------------------------|
----------------------------------------------------------------|
5-5---5-5-5---5-2-2---2-2-2---2---------------------------------|
--------------------------------5-5---5-5-5---5-3-3---3-3-3---3-|

----------------------------------------------------------------|
----------------------------------------------------------------|
5-5---5-5-5---5-2-2---2-2-2---2---------------------------------|
--------------------------------5-5---5-5-5---5-3-3---3-3-3---3-|

-----------------------------------------------------------------|
-----------------------------------------------------------------|
5-5---5-5-5---5-2-2---2-2-2---2----------------------------------|
--------------------------------5--------------------------------|

G------------------------------------------------------------------|
D------------------------------------------------------------------|
A-5-5---5-5-5---5-2-2---2-2-2---2----------------------------------|
E---------------------------------5-5---5-5-5---5|3-3---3-3-3---3--|

Outro
G--------------------------------------------------|
D--------------7---7-7-7-7-7-7-7-|7-7-7-7-7-7-7-7--|
A-9---9---9-9-9------------------------------------|
E--------------------------------------------------|

G--------------------------------|
D-----------------7--------------|
A-5---------------5--------------|
E--------------------------------|

--Untitled
Intro:
G-----------------------------------------------------|
D-----------------------------------------------------|
A-----------------------------------------------------|
E-7-7-7-7-7--7-7-7-7-7-7-7--0-0-0-0-0--2-2-2-2-2-2-2--|

Verse:
G-----------------------------------|
D-----------------------------------|
A-2-2-2-2-2-2-2-2-------------------|
E-----------------0-0-0-0--2-2-2-2--|

Chorus:
G--------------------------------------------------------------|
D--------------------------------------------------------------|
A-2-2-2-2-2-2/6/7-7-7-7-7-7-7-7--2-2-2-2-2-2/6-4-4-4-4-4-4-4---|
E--------------------------------------------------------------|

--Apple Shampoo (my favorite song)
Intro:
(She didn't mean to deceive you...)
G----------------------------------|
D-----------------3-3-3-3--5-5-5-5-|
A-3-3-3-3-3-3-3-3------------------|
E----------------------------------|

G-----------------------------------------------------------------|
D-----------------------------------------------------------------|
A-----------------8-8-8-8-8-8-8-8-8-8---------------5-5-5-5-8-8-8-|
E-5-5-5-5-5-5-5-55--------------------5-5-5-5-5-5-5---------------|

Verse:
(you know the: and she said it could never...)
G:--------------------------------------------|
D:-----------------3-3-3-3--5-5-5-5--3-3-3-3--|
A:-3-3-3-3-3-3-3-3----------------------------|
E:--------------------------------------------|

The ending parts
G----------------------------------------------------------------------|
D-----------------3-3-3-3-3-3-3-3--------------------------------------|
A-0-0-0-0-0-0-0-0-----------------0-0-0-0-0-0-0-0--5-5-5-5--8-8-8-8----|
E:---------------------------------------------------------------------|

G--------------------------------------------------------------------------------|
D-------------------------5-5-5-5-5-5-5-5--3-3-3-3-3-3-3-3—3-3-3-3-3-3-3-3-3-3-3-|
A-3-3-3-3-3-3-3-3-3-3-3-3--------------------------------------------------------|
E--------------------------------------------------------------------------------|

G--------------------------------------------------------------------------------------|
D--------------------------------------------3-3-3-3-3-3-3-3-3-3-3-5-5-5—5-5-5-5-5-5-5-|
A-3-3-3-3-3-3-3-3-3-3-3--5-5-5-5-5-5-5-5-5-5-------------------------------------------|
E--------------------------------------------------------------------------------------|

G---------------------------------------------------------------------|
D-----------------3-3-3-3-3-3-3-3-------------------------------------|
A-0-0-0-0-0-0-0-0-----------------0-0-0-0-0-0-0-0--5-5-5-5--8-8-8-8---|
E---------------------------------------------------------------------|

G-----------------------------------------------------------------------------|
D-5-5-5-5-5-5-5-5-5-------------------3-3-3-3-3-3-3-3-3-3--5-5-5-5-5-5-5-5-5--|
A-------------------5-5-5-5-5-5-5-5-5-----------------------------------------|
E-----------------------------------------------------------------------------|

G--------------------------------------------------------------------|
D---------------3-3-3-3-3-3-3-3-3-3-3-3-3--5-5-5-5-5-5—5-5-5-5-5-5-5-|
A-5-5-5-5-5-5-5------------------------------------------------------|
E--------------------------------------------------------------------|

G---------------      ---------------------------------------------|
D---------------      -------------3-3-3-3-3-3--5-5-5-5-5--3-3-3-3-|
A------3~------- solo -3-3-3-3-3-3---------------------------------|
E---------------      ---------------------------------------------|

G-----------|
D-----------|
A----3~-----|
E-----------|

--Emo
intro and bridge:
G-------------------------------------|
D-------------------------------------|
A--------------------00000000-2-------|
E--00000000000--2222------------------|

Verse part A
G-------------------------------|
D-------------------------------|
A-------------------------------|
E--0000--2222--55555555---------|x2
Verse part B
G-------------------------------|
D-------------------------------|
A--22222222--4444--0000---------|
E-------------------------------|x2

G-------------------------------------------------|
D--2>--------------2>----------------------4>---2-|
A------4>--2>--0>------2>--0>--4>--2>--0>---------|
E-------------------------------------------------|

--Josie
g-44444444444444444444444444444444
d-44444444666666662222222222222222
a----------------------------------|
e----------------------------------|  2 times

g-44444444444444448888888844444444
d-44444444666666666666666622222222
a---------------------------------|
e---------------------------------|

g-44444444444444444444444444444444
d-44444444666666662222222222222222
a---------------------------------|
e---------------------------------|

yeah my girlfriend likes...
g-----------------------------------|
d-----------------------------------|
a-22222222--------------------------|
e---------2222222200000000000000000-|

g----------------------------------|
d----------------------------------|
a-222222224444444400000000000000000
e---------------------------------- repeat last two lines
yeah just because...
g---------|
d---------|
a-22222222
e---------

second verse
and my girl friend takes...
g-----------------------------------|
d-----------------------------------|
a-22222222--------------------------|
e---------2222222200000000000000000-|

g----------------------------------|
d----------------------------------|
a-222222224444444400000000000000000
e---------------------------------- repeat last two lines

and when i feel like giving up...
d----------------------------------|
g----------------------------------|
a----------------------------------|
e-222222222222222200000000000000000

d----------------------------------|
g----------------------------------|
a-222222222222222222222222222222222
e----------------------------------

d-----------------------------------|
g-----------------------------------|
a-----------------44444444444444444-|
e-2222222222222222------------------|

d----------------------------------|
g----------------------------------|
a----------------------------------|
e-000000000000000000000000000000000

i know that everything
d-----------------------------------|
g-----------------------------------|
a-22222222--------------------------|
e---------222222220000000044442222--| two times

g----------|
d----------|
a-222222222
e----------

yeah my girl friend
g-----------------------------------|
d-----------------------------------|
a-22222222--------------------------|
e---------2222222200000000000000000-|

g----------------------------------|
d----------------------------------|
a-222222224444444400000000000000000
e---------------------------------- repeat last two lines

and when I feel like giving up...
d----------------------------------|
g----------------------------------|
a----------------------------------|
e-222222222222222200000000000000000

d----------------------------------|
g----------------------------------|
a-222222222222222222222222222222222
e----------------------------------

d-----------------------------------|
g-----------------------------------|
a-----------------44444444444444444-|
e-2222222222222222------------------|

d----------------------------------|
g----------------------------------|
a----------------------------------|
e-000000000000000000000000000000000

tom sings "I know that everything"
d-----------------------------------|
g-----------------------------------|
a-22222222--------------------------|
e---------2222222200000000444422222-| four times

g----------|
d----------|
a-222222222
e----------

Intro

When tom sings "I know that everything..."
d-----------------------------------|
g-----------------------------------|
a-22222222--------------------------|
e---------2222222200000000444422222-| four times

--A New Hope

Riff 1:
G---------------------------------------------------|
D---------------------------------------------------|
A----------------------------3333-55555-------------|
E33333333-5555-3333-00000000------------------------|

Riff 2:
G--------------------------------------------------|
D--------------------------------------------------|
A-----3333-5555---------------------3333-5555------|
E-3333--------------------------0000-----------33--|

Riff 3:
G-------------------------------------------------|
D-------------------------------------------------|
A-3333-3333-5555-5555-----------------------------|
E-------------------------------------------------|

Riff 4:
G-------------------------------------------------|
D-------------------------------------------------|
A-------------------------------------------------|
E-3333-5-3333-2-----------------------------------|

Riff 5:
G-------------------------------------------------|
D-------------------------------------------------|
A-3333-3333-5555-7777-----------------------------|
E-------------------------------------------------|

Riff 6:
G-------------------------------------------------|
D-------------------------------------------------|
A-3333-5555-3333-7-77-555-------------------------|
E-------------------------------------------------|

Riff 7:
G-------------------------------------------------|
D-------------------------------------------------|
A-3333-5-7----------------------------------------|
E----------3*-------------------------------------|

--Degenerate
Very Very Easy
G------------------------------------------------------------------------------------|
D------------------------3-3-3-3-3-3-3-3-3-0-0-0-0-0-0-0-0---------------------------|
A--1-1-1-1-1-1-1-1------------------------------------------------3-3-3-3-3-3-3-3-3--|
E------------------------------------------------------------------------------------|

--Lemmings
(NOTE: I haven't actually heard Lemmings, I borrowed this tab without asking from Tom Delonge II.
But thanks to him this will be completed.
Intro - Note: Guitar will play its riff once.  After, continue.
G|-------------------------------------------------------------------|
D|-------------------------------------------------------------------|
A|-222------222------------------------------------------------------| x2
E|-----0000-----4444-222-4444-00000000-------------------------------|

First Verse
G|-------------------------------------------------------------------|
D|-------------------------------------------------------------------|
A|-------------------------------------------------------------------|
E|-22222222-44444444-0000000000000000--------------------------------|
                                                                      x2
G|-------------------------------------------------------------------|
D|-------------------------------------------------------------------|
A|----------------------------77777777-------------------------------|
E|-22222222-44444444-00000000----------------------------------------|

Chorus
G|-------------------------------------------------------------------|
D|-------------------------------------------------------------------|
A|-------------------------------------------------------------------| x2
E|-22222222-44444444-0000000000000000--------------------------------|

Intro
G|-------------------------------------------------------------------|
D|-------------------------------------------------------------------|
A|-222------222------------------------------------------------------| x2
E|-----0000-----4444-222-4444-00000000-------------------------------|

Second Verse
G|-------------------------------------------------------------------  ----|o
D|-------------------------------------------------------------------   ---|
A|------------------------------------------------------------------- x1---|
E|-22222222-44444444-0000000000000000--------------------------------   ---|
                                                                         | x2
G|-------------------------------------------------------------------   ---|
D|-------------------------------------------------------------------   ---|
A|----------------------------77777777------------------------------- x1---|
E|-22222222-44444444-00000000----------------------------------------  ----|o

Chorus
G|-------------------------------------------------------------------|
D|-------------------------------------------------------------------|
A|-------------------------------------------------------------------| x2
E|-22222222-44444444-0000000000000000--------------------------------|

Interlude
G|-------------------------------------------------------------------  ----|o
D|-------------------------------------------------------------------   ---|
A|------------------------------------------------------------------- x1---|
E|-22222222-44444444-0000000000000000--------------------------------   ---|
                                                                         | x2
G|-------------------------------------------------------------------   ---|
D|-------------------------------------------------------------------   ---|
A|----------------------------77777777------------------------------- x1---|
E|-22222222-44444444-00000000----------------------------------------  ----|o

Chorus
G|-------------------------------------------------------------------|
D|-------------------------------------------------------------------|
A|-------------------------------------------------------------------| x2
E|-22222222-44444444-0000000000000000--------------------------------|

Bridge
G|-------------------------------------------------------------------|
D|-------------------------------------------------------------------|
A|-------------------------------------------------------------------| x2
E|-22222222-44444444-0000000000000000--------------------------------|

Outro
G|-------------------------------------------------------------------|
D|-------------------------------------------------------------------|
A|-22222222-44444444-----------77777777------------------------------| x4
E|--------------------44444444---------------------------------------|

End On
G|-------------------------------------------------------------------|
D|-------------------------------------------------------------------|
A|-2-2-2-2~~~~-------------------------------------------------------| x2
E|-------------------------------------------------------------------|

--I'm Sorry
Intro(4x)
-------------------------|
-------------------------|
----000000---------------|
------------00000000-----|


Chourus
-----------------------------------------------------------------|
-----------------------------------------------------------------|
-----5555555----------7777777--555555555-----------77777----5555-|
-------------55555555--------------------555555555---------------|
...Dont Bide Your Time

         -------------------|
         -------------------|
         ----777777---------|
         -----------555555--|
Riff 1 (4x)
--------------------------|
--------------------------|
-------7-----7---7-----7--|
---4-4---5-5--4-4--5-5----|

Riff 2
----------------------------------------------------------------|
----------------------------------------------------------------|
------------5555555---------555555--777777777-------------------|
----5555555---------7777777-------------------------------------|

Verse
----------------------------------------------------------------|
----------------------------------------------------------------|
------------7777777--5555555---7777777--------------------------|
----555555------------------------------555555555---------------|

Sorry Riff
----------------------------------------------------------------|
----------------------------------------------------------------|
--------------77777777---9999999--5555555-----------------------|
----5555555-----------------------------------------------------|
comments
print report bad tab
6 comments total. Showing first comments.
0 reply
PunkRock_Smiley wrote on January 12 2005, 12:00 am

nice try man, but this is pathetic.. your first tab? you don't even have the power chords right, i mean, you could have just gotten the tab for dammit, and prob every other song off of someone at UG.. your version isn't even close. sorry.

0 reply
PunkRock_Smiley wrote on January 12 2005, 12:00 am

nvm, i thought this was a guitar tab, until i notice only 4 strings.. bass.. it could be alright. -yes i know, i am an idiot-, but it still doesnt look right for bass.

0 reply
Uncommonresults wrote on February 11 2005, 12:00 am

Bass Chords are played opposite of guitar chords
Guitar is played
A-7-7-7-
E-9-9-9-
Bass is
A-9-9-9-
E-7-7-7-

I want to post or [tab]
guest
You may want to rate the tab now too:
select rating
Please do not post tabs as comments. Select "correction" instead!