Oops, an error
Loading. Please wait.

Dude Ranch Tab

ver2
ver2

Album

More versions @911Tabs.com
3,701 views 3 this week
3 commentsread comments
1 2 3 4 5
worth learning
x 3
add to favorites launch autoscroll
font size
0
reset
Autoscroll
+/-
esc
set tempo
stop
Contributor
Difficulty
intermediate
WARNING: You are trying to view
                                    content from Ultimate-Guitar.com
                                    in an unauthorized application,
                                    which is prohibited.

                                    Please use an official Ultimate
                                    Guitar Tabs application for iPhone,
                                    iPad or Android to access legitimate
                                    chords, guitar, bass, and drum tabs
                                    from Ultimate-Guitar.com database.

                                    Type "ultimate guitar tabs" in Apple
                                    App Store's or Android Market's
                                    search to find the application.
--------------------------------------------------------------
                BLINK 182-DUDE RANCH
--------------------------------------------------------------
Tabbed by:Mat waters
Email:Slash_gibsons@hotmail.con

Tuning:EADGBE

SONG LIST-
#PATHETIC-
#VOYEUR-
#DAMMIT-
#BORING-
#WAGGY-
#ENTHUSED-
#UNTITLED-
#APPLE SHAMPOO-
#EMO-
#JOSIE-
#A NEW HOPE-
#DEGENARTE-
#LEMMINGS-
#IM SORRY-
==================================================================

PATHETIC-

INTRO-
E-----------------------------------------------------------------|
B-5/7-0-0-0-5/7-0-0-0-5/7-0-0-0--4-----4---4----------------------|
G-----------------------------------4----4------------------------|
D-----------------------------------------------------------------|X4
A-----------------------------------------------------------------|
E-----------------------------------------------------------------|

VERSE 1-
B
I know im pathetic i knew when she said it
  F#                    E
i loser a bums what she called me when i drove her home
B
theres no waiting and sure no more wasting
    F#                     E                        B
ive done all i can but she still wants to b left alone
                                     F#
you got,you got,you got to help me out
                E        B                                 F#
and ill try not to argue,no one,no one no one like a drop out
              E
mistakes are hard to undo

CHORUS-
G#        B  F#                   B E
Dont pull me down this is where i belong,i think im different

but im the same and im wrong
G#        B  F#                   B E
Dont pull me down this is where i belong,i think im different

this is where i belong <--- (Mark & tom do a cool vocal harmony here)

INTRO-X4

VERSE 2-(LISTEN FOR PM)
  B
I think its disgusting,believing and trusting
   F#                  E
if i gave a fuck there would be nothingfor me to proove
B
although its amusing its slightly confusing
    F#                     E                     B
ive done all i can but her ego is to hard to move
                                     F#
you got,you got,you got to help me out
                 E
and ill try not to argue
B                                   F#                 E
no one,no one,no one likes a drop out,mistakes are hard to undo

CHORUS-

      Dont pull         me down     this is where   i belong I
E--------------------------------------------------------------|
B--------------------------------------------------------------|
G-----------------------4--4-------------------------4--4------|
D-6---------------------4--4--4----------------------4--4------|
A-6---------------------2--2--4----------------------2--2------|
E-4-4-4-4-4-4-4-4-4-4-4-------2--2-2-2-2-2-2-2-2-2-2-----------|
    x x x x x x x x x x          x x x x x x x x x x

  Think im different               but im the same and im
E--------------------------------------------------------------|
B--------------------------------------------------------------|
G--------------------------------------------------------------|
D-2------------------------------2-----------------------------|
A-2------------------------------2-----------------------------|
E-0--0-0-0-0-0-0-0-0-0-0-0-0-0-0-0-0-0-0-0-0-0-0-0-0-0-0-0-0-0-|
     x x x x x x x x x x x x x x   x x x x x x x x x x x x x x

  wrong  dont pull       me down    this is where i   belong I
E---------------------------------------------------------------|
B---------------------------------------------------------------|
G------------------------4--4--------------------------4--4-----|
D-6----------------------4--4--4-----------------------4--4-----|
A-6----------------------2--2--4-----------------------2--2-----|
E-4--4-4-4-4-4-4-4-4-4-4-------2---2-2-2-2-2-2-2-2-2-2----------|
     x x x x x x x x x x         x x x x x x x x x x

 Think im different               but this is where i belong
E----------------------------------------------------------------|
B----------------------------------------------------------------|
G----------------------------------------------------------------|
D-2-----------------------------2--------------------------------|
A-2-----------------------------2--------------------------------|
E-0-0-0-0-0-0-0-0-0-0-0-0-0-0-0-0-0-0-0-0-0-0-0-0-0-0-0-0-0-0----|

INTRO X4

BRIDGE-
G# B F# B E X2

CHORUS-

END ON B

STRUCTURE-

INTRO-
VERSE -
CHORUS-
INTRO -
VERSE -
CHORUS-
INTRO -
BRIDGE-
END-
=====================================================================
VOYEUR-

VERSE 1-
C                         A              F
And when the day ends im sure she feels sorrow
C                       A                F
 the lonely guy i am,i wait for her to change
C                           A           F
 ive been here to days,ill sure be here tomorrow
C                        A           F
 id eat her if she were on my dinner plate

CHORUS-
G                        F             C
  and i wish,i wish shed be more kind now
RIFF 1-
E---------------------------------|
B---------------------------------|
G---------------------------------|
D-2-2--2-2-3--2-2--2-2------------|X1
A-3-3--3-3----3-3--3-3-5----------|
E----------------------3----------|
G           F              C                G
 im out of luck cause the shades are pulled down
           F               C         G
 Ive seen everything there is to be shown
                 F           C
 i followed her all the way home (RIFF 1)X2

VERSE 2(same)
I i cant be to cool in a tree with my pants down
the air is cold and i got splinters in my feet
she caught me once but i dont think she cares now
unlike before her view is now blocked by a leaf


CHORUS-(same)
BRIDGE-
C            F               G           F
  I bet this last times the one time too many
C             F          G                 F
  the rush of waiting is buring through my head
C              F          G               F
  right after supper her brother showers twice a week
C              F               G                   F
  he kicks my ass so much,that filthy white inbred na na na

VERSE3-
Ive made mistakes by looking in the wrong window
her dad is big and ive never seen his face
ive been here to days ill sure be here tomorrow
my lady`s so sweet she like to entertain

CHORUS(same)
BRIDGE(same

RIFF 2-
E-----------------------------------------|
B-----------------------------------------| (Marks bass solo)
G-----------------------------------------|    then
D---------------------------3-3-----------| ONE TWO THREE FOUR
A-3-2-----------------------3-3-----------|
E-----3-3-3-3-3-3-3-3-3-0---1-1-----/-----|

OUTRO-

(*=HIT THE NOTE ONCE)
F*F*C*C*G*G*
F*F*C*G*
F*F*C*G*A

RIFF 1 X2
END ON C

STRUCTURE-

VERSE 1-
CHORUS -
RIFF 1-
VERSE 2-
CHORUS-
BRIDGE-
VERSE 3-
CHORUS-
BRIDGE-
RIFF 2-
OUTRO-
END-
======================================================
DAMMIT-

INTRO-
Take your pants off!
E-----------------------------------------------|
B-----------------------------------------------|
G-----------------------------------------------|
D---------2---------2----------3--3-3-2-2-5-----|X4
A-3-3-5-5-------5-5----3-3-5-5------------------|
E-----------3-3---------------------------------|

VERSE 1-
C            G          A              F
It's alright,to tell me,what you think,about me
C           G         A          F
I won't try,to argue,or hold it,against you
C           G              A             F
I know that,you're leaving,you must have,your reasons
C          G              A              F
the season,is calling,and your pictures,are falling down

INTRO-X2

VERSE 2-

C             G         A            F
The steps that I retrace the sad look on your face
 C           G              A
The timing, and structure, did you hear he f***ed her
C          G            A            F
A day late,a buck short I'm writing the report
C           G           A           F
I'm losing, and faling when I move I'm flailing now

CHORUS-

C                         G                    A
And it's happened once again, I'll turn to a friend
                     F
Someone that understands, sees through the master plan
C                 G                                 A
But everybody's gone, and I've been there for too long
                    F
To face this on my own, well I guess this is growing up

INTRO-X2

VERSE 3-

C          G            A            F
And maybe I'll see you at a movie sneak preview
C            G           A          F
You show up, and walk by on the arm of that guy
C               G               A             F
And I'll smile, and you'll wave we'll pretend it's ok
C               G             A             F
This showrave, it won't last when he's gone I won't come back

CHORUS-

C                       G                      A
And it'll happen once again, you'll turn to a friend
                    F
Someone that understand, sees through the master plan
C                G                                   A
But everybody's gone, and you've been there for too long
                      F
To face this on your own well I guess this is growing up

INTERLUDE-

E-0-------0----0-------0-----0----------|
B---1---3---1----1---3---1-3---1--------|
G-----0------------0--------------------|
D---------------------------------------|
A---------------------------------------|
E---------------------------------------|

INTRO (OVER)

Well, I guess this is growing up
well, I guess this is growing up
well, I guess this is growing up
well, I guess this is growing up
well, I guess this is growing up

END ON C

STRUCTURE-

INTRO-
VERSE 1-
INTRO-
VERSE 2-
CHORUS -
INTRO-
VERSE 3-
CHORUS-
INTERLUDE-
INTRO/OUTRO-
END-
==================================================
BORING-

INTRO-
E-------------------------------------|
B-------------------------------------|
G-------------------------------------|
D--------------P---------------P------|X4(PM)
A-0-4-0-0-5-0-4-0---2-----5---2-0-----|
E-----------------0---0-0---0---------|

E-------------------------------------|
B-------------------------------------|
G-------------------------------------|
D--------------P---------------P------|X4
A-0-4-0-0-5-0-4-0---2-----5---2-0-----|
E-----------------0---0-0---0---------|

VERSE 1
A       A/C#       F#   D E
 You don't need nothing
       B        E          D       A
and I know that you won't even try
       A/C#    F#        D     E
don't wait for me to help you
    A/C#     E        D      A C# G# D
too late for any of my advice
E        A C# G# D
No trust
D     E          A
all I got is lies
E     A C# G# D
boring
E
alright

VERSE 2
A     A/C#         F#   D
 Misplaced your values
E        B    E             D        A
 forgot the importance of being right
        A/C#     F#       D
don't sit there and act humble
E     A/C#       E           D         A
 I've heard your story a thousand times


E        A C# G# D
No trust
D     E          A
all I got is lies
E     A C# G# D
boring
E
alright

OUTRO-
E-------------------------------------|
B-------------------------------------|
G-------------------------------------|
D-7-7-7-6-6-6-------------------------|
A-------------7-7-7-7-7-7-7-7-7-------|
E-------------------------------------|

E--------------------------------------|
B--------------------------------------|
G--------------------------------------|
D-------6-6-6--------------------------|X4
A-5-5-5-------7-7-7-0-0-0-0-0-0-0-0-0--|
E--------------------------------------|
BASS RIFF

E-------------------------------------------------------|
B-------------------------------------------------------|
G----------------------6-6------7-7-7-7-9-9-9-9---------|
D-7-7---HARMONICS-7-7--6-6-6-6--7-7-7-7-9-9-9-9--7/-----|
A-7-7----7-7-7-7--7-7--4-4-6-6--5-5-5-5-7-7-7-7--7/-----|
E-5-5-------------5-5------4-4-------------------5/-----|

UNLESS YOU HAVE A HORSE YOU WANNA KISS FOR ABOUT
10 SECONDS,THATS THE WHOLE SONG....
=========================================================
DICK LIPS-

INTRO-
E--------------------------------------------------------|
B--------------------------------------------------------|
G--------------------------------------------------------|
D-7-7-7-7-7-7-7-7-7-7-7-7--7-7-7-7-7-7-7-7-7-7-7-7-------|
A-4-4-4-4-4-4-4-4-4-4-4-4--5-5-5-5-5-5-5-5-5-5-5-5-------|
E--------------------------------------------------------|

E--------------------------------------------------------|
B--------------------------------------------------------|
G--------------------------------------------------------|
D-7-7-7-7-7-7-7-7-7-7-7-7--9-9-9-9-9-9-9-9-9-9-9-9-------|X2
A-0-0-0-0-0-0-0-0-0-0-0-0--7-7-7-7-7-7-7-7-7-7-7-7-------|
E--------------------------------------------------------|

VERSE 1-
A                                     D
Please mum,u ground me all the time,i know
                 E
that i was right all along
       A                               D
and im hoping,you remember im a kid,i know
                    E
not what i did just having fun,you couldnt

PRE CHORUS-

A/C#                D             A               E
wait,for something new and yesterday,i thught of you
            A/C#                  D
left me to think as if i couldnt walk away,its to late
A         E
 i fell through

CHORUS-
F#              D           A
Nothing to loose,a boy who went
            E
out when he finished all his chores


F#         D                 A
  nothing do they cant trust me
           E
because i blew it once before

INTRO-

VERSE 2-
A
Shit dad please dont kick my ass i
D                             E
know ive seen you trashed at least one time
A
can i blame it on one of my dumb friends its
D                        E
been awhile since i have used that line

PRE CHORUS
A/C#                D             A               E
wait,for something new and yesterday,i thught of you
            A/C#                  D
left me to think as if i couldnt walk away,its to late
A         E
 i fell through


CHORUS-

F#              D           A                E
Nothing to loose,a boy who went out when he finished all his chores
F#         D                 A             E
  nothing do they cant trust me because i blew it once before


INTRO-

E (FOR ONE BAR OF 16th notes)

BRIDGE-(ALRIGHT)

E------------------------------------------------------------|
B------------------------------------------------------------|
G------------7-6--4-4-4-7-7-7-7-----------7-6--4-4-4-7-7-7-7-|
D-7-7-7-7-7--7-6--4-4-4-7-7-7-7-7-7-7-7-7-7-6--4-4-4-7-7-7-7-|
A-7-7-7-7-7--5-4--2-2-2-5-5-5-5-7-7-7-7-7-5-4--2-2-2-5-5-5-5-|
E-5-5-5-5-5---------------------5-5-5-5-5--------------------|

E------------|
B-1O---------|(PLAY THIS NOTE FOR ABOUT 2 HOURS)
G--X---------|  (THEN GO INTO THE CHORUS)
D--7---------|    `NOTHING TO LOOSE`
A------------|
E------------|

END ON A-

STRUCTURE-

INTRO-
VERSE 1-
PRE CHORUS-
CHORUS-
INTRO-
VERSE 2-
PRE CHORUS -
CHORUS-
INTRO-
BRIDGE-
CHORUS -
OUTRO-
END-
=====================================================
WAGGY-(THIS IS KINDA HARD TO PUT THE NOTE OVER THE)
         (LYRICS SO IM GONNA PUT THEM SEPERATE)

INTRO-PT1
E|------------------------------------------|
B|----3--2-----3--2------3--2-----3--2------|
G|----2--2-----2--2------2--2-----2--2------|
D|-2--------2---------2--------2------------|
A|-0--------0---------0--------0------------|
E|------------------------------------------|
 INTRO-PT2
E|------------------------------------------|
B|------------------------------------------|
G|-6-6-6-6-6-6-6-6-6-6-6-6-6-6-6-6-6--------|
D|-x-x-x-x-x-x-x-x-x-x-x-x-x-x-x-x-x--------|
A|-4-4-4-4-4-4-4-4-4-4-4-4-4-4-4-4-4--------|
E|------------------------------------------|

E|----------------------------------------------|
B|----------------------------------------------|
G|-6-6-6-6-6-6-6-6-6--9/7-6-7-9-----------------|
D|-x-x-x-x-x-x-x-x-x--x/x-x-x-x-7-7-7-7-7-7-7-7-|X2
A|-4-4-4-4-4-4-4-4-4--7/5-4-5-7-7-7-7-7-7-7-7-7-|
E|------------------------------5-5-5-5-5-5-5-5-|

 VERSE 1-
Watching your house shrink away in my rear-view mirror
as I drive away
E|------------------------------------------|
B|----3--2-----3--2------3--2-----3--2------|
G|----2--2-----2--2------2--2-----2--2------|
D|-2--------2---------2--------2------------|
A|-0--------0---------0--------0------------|
E|------------------------------------------|
 wishing that I could take back all those words
that meant nothing that I didn't say
E|---------------------------------------------------|
B|---3-2---3-2----3-3-2----3-2---3-2---3-2---3-2-----|
G|---2-2---2-2----2-2-2----2-2---2-2---2-2---2-2-----|
D|-4-----4------2--------2-----2-----2-----2---------|
A|-4-----4------0--------0-----0-----0-----0---------|
E|-2-----2-------------------------------------------|
  nothing that I didn't say           I'm trying
E|---------------------------------------------------|
B|---3-2---3-2----3-3-2----3-2---3-2-----------------|
G|---2-2---2-2----2-2-2----2-2---2-2-----------------|
D|-4-----4------2--------2-----2------7--------------|
A|-4-----4------0--------0-----0------7--------------|
E|-2-----2----------------------------5--------------|

   F#                        D
to be what you want me to be
E
but it's so damn hard to keep playing the part
       F#                    D
of the fool, week after week

CHORUS-
F#         D                B
I think you need some time alone (
I think you need some time alone)
F#        D                   B
 you say you want someone to call your own
F#        D              B
open your eyes, you can suck in your pride
        F#            D             A
you can live your life all on your own

INTERLUDE-
E|------------------------------------------|
B|------------------------------------------|
G|-6-6-6-6-6-6-6-6-6-6-6-6-6-6-6-6-6--------|
D|-x-x-x-x-x-x-x-x-x-x-x-x-x-x-x-x-x--------|
A|-4-4-4-4-4-4-4-4-4-4-4-4-4-4-4-4-4--------|
E|------------------------------------------|

E|----------------------------------------------|
B|----------------------------------------------|
G|-6-6-6-6-6-6-6-6-6--9/7-6-7-9-----------------|
D|-x-x-x-x-x-x-x-x-x--x/x-x-x-x-7-7-7-7-7-7-7-7-|X2
A|-4-4-4-4-4-4-4-4-4--7/5-4-5-7-7-7-7-7-7-7-7-7-|
E|------------------------------5-5-5-5-5-5-5-5-|

VERSE 2-
  Is this all going to be just another time
E|------------------------------------------|
B|----3--2-----3--2------3--2-----3--2------|
G|----2--2-----2--2------2--2-----2--2------|
D|-2--------2---------2--------2------------|
A|-0--------0---------0--------0------------|
E|------------------------------------------|
  that we play this game?
I've tried to convince you that things could be different

E|---------------------------------------------------|
B|---3-2---3-2----3-3-2----3-2---3-2---3-2---3-2-----|
G|---2-2---2-2----2-2-2----2-2---2-2---2-2---2-2-----|
D|-4-----4------2--------2-----2-----2-----2---------|
A|-4-----4------0--------0-----0-----0-----0---------|
E|-2-----2-------------------------------------------|
  but somehow they end up the same
E|---------------------------------------------------|
B|---3-2---3-2----3-3-2----3-2---3-2-----------------|
G|---2-2---2-2----2-2-2----2-2---2-2-----------------|
D|-4-----4------2--------2-----2------7--------------|
A|-4-----4------0--------0-----0------7--------------|
E|-2-----2----------------------------5--------------|

    A
But what
                       F#                         D
did you expect from me?  What am I supposed to do?
E A
  you say that you're starting to
                         F#
feel like you're getting lost
           D
well, I do too

CHORUS-
F#            D               B
 I don't wanna live this lie again
(I don't wanna live this lie again)
F#          D                   A
 I know I'll get it right but I don't know when
     F#      D              B
I'll open my eyes, I've got something in side
          F#            D             A
I'll just jack off in my room until then

  INTERLUDE-2-DO THAT A FEW TIMES ONLY DO THE PM PT)
E|-----------------------------------------|THE FIRST TIME)
B|-----------------------------------------|
G|-----------------------------------------|
D|-2-2--2-2--2---P---P---P---P---P---P-----|
A|-0-0--0-0--0--4-0-5-0-4-0-5-0-4-0-5-0----|
E|-----------------------------------------|
   X X  X X  X

OUTRO-
A
 It's never over 'til it's done
F#                                 D
 and I don't think that you're the one
A
 it's never over 'til it's done
F#                                 D
 and I don't think that you're the one

A
 It's never over 'til it's done
F#                                 D
 and I don't think that you're the one
A
 it's never over 'til it's done
F#                                  D
 and I don't think that you're the one

END WITH-A F# D A
=============================================================
ENTHUSED-

INTRO-PT1

E------------------------------------------------------------|
B-------------------------------10-10-10-10-10-10-10-10------|
G-7-7-7-7-7-7-7-7--P-----P-------9--9--9--9--9--9--9--9------|
D-7-7-7-7-7-7-7-7-5-4---4-0--P---X--X--X--X--X--X--X--X------|
A-5-5-5-5-5-5-5-5-----5-----5-0--7--7--7--7--7--7--7--7------|
E------------------------------------------------------------|

E------------------------------------------------------------|
B------------------------------------------------------------|
G--P-----P---------------------------------------------------|
D-5-4---4-0--P---9-9-9-9-9-9-9-7--7-7-7-7-7-7-7-2------------|
A-----5-----5-0--9-9-9-9-9-9-9-7--7-7-7-7-7-7-7-2------------|
E----------------7-7-7-7-7-7-7-5--5-5-5-5-5-5-5-0------------|

E------------------------------------------------------------|
B------------------------------------------------------------|
G-------------------P-----P----------------------------------|
D-5-5-5-5-5-5-5-5--5-4---4-0--P------------------------------|X2
A-5-5-5-5-5-5-5-5------5-----5-0-----------------------------|
E-3-3-3-3-3-3-3-3--------------------------------------------|

INTRO-PT2-

E-----------------------------------------------------------|
B-----------------------------------------------------------|
G-7-7-7-7-7-7-7-7-7/12-12/-11/9-----------------------------|
D-x-x-x-x-x-x-x-x-x/-x--x/-x-/x-----------------------------|X2
A-5-5-5-5-5-5-5-5-5/10-10/-9-/7-----------------------------|
E-----------------------------------------------------------|

E-----------------------------------------------------------|
B-----------------------------------------------------------|
G-9-9-9-9-9-9-9-9--9-9-9-9-9-9-9-7-7-7-7-7-7-7-7-7----------|
D-x-x-x-x-x-x-x-x--x-x-x-x-x-x-x-x-x-x-x-x-x-x-x-x----------|
A-7-7-7-7-7-7-7-7--7-7-7-7-7-7-7-5-5-5-5-5-5-5-5-5----------|
E-----------------------------------------------------------|

E-----------------------------------------------------------|
A-----------------------------------------------------------|
B-----------------------------------------------------------|
G-9-9-9-9-9-9-9-9-7-7-7-7-7-7-7-7-7-7/12-12/-11/9-----------|
D-x-x-x-x-x-x-x-x-x-x-x-x-x-x-x-x-x-x/-x--x/-x-/x-----------|
A-7-7-7-7-7-7-7-7-5-5-5-5-5-5-5-5-5-5/10-10/-9-/7-----------|
E-----------------------------------------------------------|

E-----------------------------------------------------------|
B-----------------------------------------------------------|
G-7-7-7-7-7-7-7-7-7/12-12/-11/9-9-9-9-9-9-9-9-9-9-9-9-9-7-6-|
D-x-x-x-x-x-x-x-x-x/-x--x/-x-/x-x-x-x-x-x-x-x-x-x-x-x-x-x-x-|
A-5-5-5-5-5-5-5-5-5/10-10/-9-/7-7-7-7-7-7-7-7-7-7-7-7-7-6-5-|
E-----------------------------------------------------------|

E-----------------------------------------------------------|
B-----------------------------------------------------------|
G-7-7-7-7-7-7-7-7-9-9-9-9-9-9-9-9---------------------------|
D-x-x-x-x-x-x-x-x-x-x-x-x-x-x-x-x---------------------------|
A-5-5-5-5-5-5-5-5-7-7-7-7-7-7-7-7---------------------------|
E-----------------------------------------------------------|

INTRO-PT3(LISTEN FOR PM)
E------------------------------------------------------------|
B------------------------------------------------------------|
G---7-----7----7-----7---6-----7-----7---6/7---9-----9---6---|
D--------------------------0-5---5-5---5-----7---7-7---------|X2
A-5---5-5----7---7-7---7-----------------------------------5-|
E------------------------------------------------------------|

PRE VERSE-
  D               D/A(?)          D/G(?)          D/E(?)
E----------------------------------------------------------|
B----------------------------------------------------------|
G-7-7-7-7-7-7-7-7-7-7-7-7-7-7-7-7-7-7-7-7-7-7-7-7-99999999-|
D-7-7-7-7-7-7-7-7-7-7-7-7-7-7-7-7-5-5-5-5-5-5-5-5-77777777-|
A-5-5-5-5-5-5-5-5-7-7-7-7-7-7-7-7-5-5-5-5-5-5-5-5-77777777-|
E----------------------------------------------------------|

VERSE 1-
D    D/A         D/G      D/E
 Am I strung out, crazy, or not allowed
D          D/A           D/G           D/E
 to be the one who gets stupid over you
D      D/A               D/G                  D/E         D
 lazy (lazy), laid back (laid back), maybe you're just on crack
              D/A           D/G             D/E
 why am I the one who gets fucked up and confused? (go!)

INTERLUDE-1

E-----------------------------------------------------------------|
B-----------------------------------------------------------------|
G-7-7-7-7-7-7-7-7-7-7-7-7-7-7-7/9-7-7-7-6-6-----------------------|
D-x-x-x-x-x-x-x-x-x-x-x-x-x-x-x/--x-x-x-x-x-7-7-5-5-5-5-5-5-5-5-5-|
A-5-5-5-5-5-5-5-5-5-5-5-5-5-5-5-7-5-5-5-4-4-x-x-x-x-x-x-x-x-x-x-x-|
E-------------------------------------------5-5-3-3-3-3-3-3-3-3-3-|

E-----------------------------------------------------------------|
B-----------------------------------------------------------------|
G-7-7-7-7-7-7-7-7-7-7-7-7-7-7-7/9-7-7-7-6-6-----------------------|
D-x-x-x-x-x-x-x-x-x-x-x-x-x-x-x/--x-x-x-x-x-7-7-5-5-5-5-5-5-5-5-5-|
A-5-5-5-5-5-5-5-5-5-5-5-5-5-5-5-7-5-5-5-4-4-x-x-x-x-x-x-x-x-x-x-x-|
E-------------------------------------------5-5-3-3-3-3-3-3-3-3-3-|

E-----------------------------------------------------------------|
B-----------------------------------------------------------------|
G-9\7-7-7-7-7-7/9-7-7-7-7-7-7-7-7/9\7-7-7-7/9-9/12-12-12-12-12\9--|
D-x\x-x-x-x-x-x/x-x-x-x-x-x-x-x-x/x\x-x-x-x/x-x/x--x--x--x--x-\x--|
A-7\5-5-5-5-5-5/7-5-5-5-5-5-5-5-5/7\5-5-5-5/7-7/10-10-10-10-10\7--|
E-----------------------------------------------------------------|

E-----------------------------------------------------------------|
B-----------------------------------------------------------------|
G-9\7-7-7-7-7-7/9-7-7-7-7-7-7-7-7/9\7-7-7-7-----------------------|
D-x\x-x-x-x-x-x/x-x-x-x-x-x-x-x-x/x\x-x-x-x-7-5-5-5-5-5-5-5-5-5---|
A-7\5-5-5-5-5-5/7-5-5-5-5-5-5-5-5/7\5-5-5-5-7-5-5-5-5-5-5-5-5-5---|
E-------------------------------------------5-3-3-3-3-3-3-3-3-3---|

INTRO-PT3(LISTEN FOR PM)
E------------------------------------------------------------|
B------------------------------------------------------------|
G---7-----7----7-----7---6-----7-----7---6/7---9-----9---6---|
D--------------------------0-5---5-5---5-----7---7-7---------|X2
A-5---5-5----7---7-7---7-----------------------------------5-|
E------------------------------------------------------------|

BRIDGE-
D            D/A         G             A
 She doesn't care at all   she doesn't care at all
D            D/A              G              A
 she doesn't care about those times we never shared at all

INTRO-PT2-
E-----------------------------------------------------------|
B-----------------------------------------------------------|
G-7-7-7-7-7-7-7-7-7/12-12/-11/9-----------------------------|
D-x-x-x-x-x-x-x-x-x/-x--x/-x-/x-----------------------------|X2
A-5-5-5-5-5-5-5-5-5/10-10/-9-/7-----------------------------|
E-----------------------------------------------------------|

E-----------------------------------------------------------|
B-----------------------------------------------------------|
G-9-9-9-9-9-9-9-9--9-9-9-9-9-9-9-7-7-7-7-7-7-7-7-7----------|
D-x-x-x-x-x-x-x-x--x-x-x-x-x-x-x-x-x-x-x-x-x-x-x-x----------|
A-7-7-7-7-7-7-7-7--7-7-7-7-7-7-7-5-5-5-5-5-5-5-5-5----------|
E-----------------------------------------------------------|

E-----------------------------------------------------------|
A-----------------------------------------------------------|
B-----------------------------------------------------------|
G-9-9-9-9-9-9-9-9-7-7-7-7-7-7-7-7-7-7/12-12/-11/9-----------|
D-x-x-x-x-x-x-x-x-x-x-x-x-x-x-x-x-x-x/-x--x/-x-/x-----------|
A-7-7-7-7-7-7-7-7-5-5-5-5-5-5-5-5-5-5/10-10/-9-/7-----------|
E-----------------------------------------------------------|

E-----------------------------------------------------------|
B-----------------------------------------------------------|
G-7-7-7-7-7-7-7-7-7/12-12/-11/9-9-9-9-9-9-9-9-9-9-9-9-9-7-6-|
D-x-x-x-x-x-x-x-x-x/-x--x/-x-/x-x-x-x-x-x-x-x-x-x-x-x-x-x-x-|
A-5-5-5-5-5-5-5-5-5/10-10/-9-/7-7-7-7-7-7-7-7-7-7-7-7-7-6-5-|
E-----------------------------------------------------------|

E-----------------------------------------------------------|
B-----------------------------------------------------------|
G-7-7-7-7-7-7-7-7-9-9-9-9-9-9-9-9---------------------------|
D-x-x-x-x-x-x-x-x-x-x-x-x-x-x-x-x---------------------------|
A-5-5-5-5-5-5-5-5-7-7-7-7-7-7-7-7---------------------------|
E-----------------------------------------------------------|

BRIDGE-PT2-
D     Bm            A                 G
 If I were the last   of the few who always ask
D                       Bm                   A(PM)G(PM)
 would you still be the same person that I knew
D             Bm    A*
 and if it's for me, another boring story
D        Bm          A     G
 I swear I'll act enthused

INTRO-PT1
E------------------------------------------------------------|
B-------------------------------10-10-10-10-10-10-10-10------|
G-7-7-7-7-7-7-7-7--P-----P-------9--9--9--9--9--9--9--9------|
D-7-7-7-7-7-7-7-7-5-4---4-0--P---X--X--X--X--X--X--X--X------|
A-5-5-5-5-5-5-5-5-----5-----5-0--7--7--7--7--7--7--7--7------|
E------------------------------------------------------------|

E------------------------------------------------------------|
B------------------------------------------------------------|
G--P-----P---------------------------------------------------|
D-5-4---4-0--P---9-9-9-9-9-9-9-7--7-7-7-7-7-7-7-2------------|
A-----5-----5-0--9-9-9-9-9-9-9-7--7-7-7-7-7-7-7-2------------|
E----------------7-7-7-7-7-7-7-5--5-5-5-5-5-5-5-0------------|

E------------------------------------------------------------|
B------------------------------------------------------------|
G-------------------P-----P----------------------------------|
D-5-5-5-5-5-5-5-5--5-4---4-0--P------------------------------|X2
A-5-5-5-5-5-5-5-5------5-----5-0-----------------------------|
E-3-3-3-3-3-3-3-3--------------------------------------------|

OUTRO-
E------------------------------------------------------------|
B----------------------------------------------------7-------|
G-------------------------------------------------7--7-------|
D-9-9-9-9-9-9-9-7-7-7-7-7-7-7-7-7-7-7-7-7-7-7-----7--7-------|
A-7-7-7-7-7-7-7-5-5-5-5-5-5-5-5-5-5-5-5-5-5-5-2-2-5--5-------|
E---------------------------------------------0-0------------|

==============================================================
UNTITLED-

INTRO-
E------------------------------------------------------------|
B------------------------------------------------------------|
G------------------------------------------------------------|
D-4-4-4-4---4-4-4-4-4-4-4-4----------------------------------|X2
A-2-2-2-2---2-2-2-2-2-2-2-2--2-2-2-2--4-4-4-4-4-4-4-4--------|
E----------------------------0-0-0-0--2-2-2-2-2-2-2-2--------|

VERSE 1-
B                      E                   F#
  I think of awhile ago,  we might of had it all
B                      E                F#
  i was so stupid then,   we needed time to grow
B                               E              F#
  but now just as things change,  aswell my feelings do
B                        E              F#
  in time thing rearange   i am so sick  of chasing

CHORUS(HALF TIME)  (/=SLIDES)
G#~           G#/A E                   E\B  B
You,but what do i get cause i just seem to lose
          B/C#                     C#/D#
you make me regret those times i spent with you
        D#/E                           E\B
and playing those games as i wait for your call
     B/D#             Emaj
now i give up so good bye and so long

INTRELUDE (FASTER)

B G# F# E D B X2

VERSE 2-
B                       E               F#
Its not a change of pace this time ill get it right,
B                     E           F#              B
its not a change taste,i was the one there last night
                           E                 F#
you have your other friends they were there when you cried
B                        E                      F#              G#
 didnt mean to hurt you then best friends just wont leave your side

CHORUS-
               E                        B
But what do i get cause i just seem to lose
               F#                           G#
you make me regret those times i spent with you
                   E                        B
and playing those games as i wait for your call
           F#         E
now i give up,so good bye and so

INTRELUDE 2(PM)

  LONG
E-----------------------------------------------|
B-----------------------------------------------|
G-----------------------------------------------|
D---1--4---2--1----1--4----2--1-----------------|X4
A-2---------------------------------------------|
E--------2-------0-------2----------------------|

VERSE 3-

Eoct
Its not a change of pace this time ill get it right
                          E*E*                         G#
its not a change of taste,   i was the one there last nite

CHORUS-
                   E                   B
When i needed you most,when i needed a friend
                 F#                     G#
you let me down now like i let you down then
        E
so sorry,its over

OUTRO-
B              F#
AHHHHHHHHHHHHHHHHHHHHHHHHHHHHHHHHH

END ON B

STRUCTURE-

INTRO-
VERSE 1-
CHORUS
INTERLUDE#1-
VERSE 2-
CHORUS
INTERLUDE#2-
VERSE-
CHORUS-
OUTRO-
END-
===============================================================
APPLE SHAMPOO-

INTRO-
C
She didn't mean to deceive you, believe me
                                                                             E*E*
but sometimes the hardest part is conceiving
                                               F*F*
The good intentions that you had
                                      E*E*
now only came to this
                                                  D         F
and although she saw the mark      the arrow missed

VERSE 2-
C
It isn't exciting reciting the stories

of kind words turned hurting when routine gets boring
A*A*                                            F*F*
Both getting tired of punk rock clubs
                                                  E*E*
and both playing in punk rock bands
                                                  D
the start was something good
        D
but some good things must end

RIFF 1-
E-------------------------------------------------------------|
B--------------------------------0----------------------------|
G-5------5---5-5-5-----5---5-5-5-----5---5-5-5------5---5-5---|
D---5------5-------5-----5---------5---5-------5------5-------|
A------3-------------3----------------------------3-----------|
E-------------------------------------------------------------|

VERSE-3(LISTEN FOR PM)
E-------------------------------------------------------------|
B-------------------------------------------------------------|
G-------------------------------------------------------------|
D---2-----2----3-----3------5-----5-----3-----3---------------|X4
A-3---3-3----3---3-3---3--3---3-3---3-3---3-3---3-------------|
E-------------------------------------------------------------|
And she said, "It could never survive
with such differing lives
one home, one out on tour again
We may never come back
the strike of a match
the candle's burning at both ends."

VERSE 4-
And now she knows too much
and I'm too fucked up
it's awkward trying to make my move
I'll pretend that I'm fine
show up right on time
but I know I'll never be that cool

CHORUS-
Am                          F
 I never wanted to hold you back
                       Am  D
I just wanted to hold on
       F
but my chance is gone

BRIDGE-
C    G                  F
   I know just where  I stand  a boy
                                  C
trapped in the body of a man and
                                 D
I'll take what you're willing to give
                             F
and I'll teach myself to live
                             G
with a walk-on part of a background shot
       A B           C
from a movie I'm not in
F          G     F C     F         G  F
She's so important   and I'm so retarded

CHORUS-
Am               f
  And now I realize

I should have kissed you in L.A.
Am
  but I drove home all alone
   D         F            G
as if I had a choice, anyway

BRIDGE-2-
              D
Where are you coming from?
              F
what are you running from?
                    G
is it so hard to see?
                   D
And if you're feeling scared
         F
remember the time we shared
                       G
you know it meant everything (everything)
                        E*      B*
you know that it meant everything to me

OUTRO-
(JUST PICK THE `C`CHORD FOR THE REST OF THE SONG)

 You know that it meant everything to me.
==================================================================
EMO-

INTRO-(HARM)
E-----------------------------------------------------------------|
B-----------------------------------------------------------------|
G-----------------------------------------------------------------|
D-----------------------------------------------------------------|X3
A-----------------------------------------------------------------|
E-5-5-5-5-5-5-5-5-5-5-5-5-5-5-5-5-5-5-5-5-5-5-5-5-5-5-5-5-5-5-5-5-|

INTRO-PT2-
E-----------------------------------------------------------|
B------------------2----------------------------------------|
G-----2----1-------1-----------2-----1----------------------|X1
D--------------2--------2------------------2/4--------------|
A--------------x------------0-------------------------------|
E-0------------2--------------------------------------------|

VERSE 1-
B              C#          A
One more time you will laugh about it
B                C#         A
 and he'll never try to give you more
E                  C#           A
 and I don't care, he is such a dick
E                     C#      A
 treats you like you are a stupid whore

VERSE 2-
B                 C#                A
And it seems like things will never change
B                 C#               A
 you go on, every cloud is in your way
E                    C#            A
 and I know you feel empty all the time
E                       C#              A
 you'll never listen to anything that I say

CHORUS-
E(oct)
 She's better off sleeping on the floor

'cause she fell right off when all

is said, you know

it's okay to just want more

INTRO-PT1-

B              C#               A
Why leave when you claim it is love?
B                     C#               A
 but why stay when you're not the only one?
E                   C#     A
 she's proved she's strong
E             C#       A
 be brave, be strong

CHORUS(SAME-Eoct)

She's better off sleeping on the floor

'cause she fell right off when all

is said, you know

it's okay to just want more

INTERLUDE-
E-------------------------------------------------|
B-------------------------------------------------|
G-13-13-13-13-13-13-13-13-13-13-13-13-13-13-13-13-|
D-X--X--X--X--X--X--X--X--X--X--X--X--X--X--X--X--|X2
A-11-11-11-11-11-11-11-11-11-11-11-11-11-11-11-11-|
E-------------------------------------------------|

E-------------------------------------------------|
B-------------------------------------------------|
G-14-14-14-14-14-14-14-14-14-14-14-14-14-14-14----|
D-X--X--X--X--X--X--X--X--X--X--X--X--X--X--X-----|X2
A-12-12-12-12-12-12-12-12-12-12-12-12-12-12-12----|
E-------------------------------------------------|

E--------------------------------------------------|
B--------------------------------------------------|
G-15-15-15-15-15-15-15-15-15-15-15-15-15-15-15-15--|
D-X--X--X--X--X--X--X--X--X--X--X--X--X--X--X--X---|X2
A-13-13-13-13-13-13-13-13-13-13-13-13-13-13-13-13--|
E--------------------------------------------------|

E--------------------------------------------------  ----|
B--------------------------------------------------  ----|
G-16-16-16-16-16-16-16-16-16-16-16-16-16-16-16-16--  -16-|
D-X--X--X--X--X--X--X--X--X--X--X--X--X--X--X--X---X2-X--|
A-14-14-14-14-14-14-14-14-14-14-14-14-14-14-14-14--  -14-|
E--------------------------------------------------  ----|

BASS PT-
E                   F#        A (SAME FOR THE REST)
   She's better off sleeping on the floor
she's better off sleeping on the floor (because she fell right off her bed)
   she's better off sleeping on the floor
she's better off sleeping on the floor (because she fell right off her bed)
   she's better off sleeping on the floor
she's better off sleeping on the floor (because she fell right off her bed)
   she's better off sleeping on the floor
she's better off sleeping on the floor (because she fell right off her bed)

THATS IT....
IF THERES ANY MISTAKES PLZ LET ME NO..
CHEERS

=================================================================
JOSIE

INTRO-
B-x11(let ring)

VERSE 1-
B*                            F#                         Em
 Yeah, my girlfriend takes me home when I'm too drunk to drive
        B                C#            Em
and she doesn't get all jealous when I hang out with the guys
B                      F#               Em(PM)
she laughs at my dumb jokes when no one does
              B                  C#                     E
she brings me mexican food from Sombrero's just because
                  B
(yeah, just because)

VERSE 2-(SAME)
B                         F#          Em
And my girlfriend likes U.L. and D.H.C.
             B              F#                   Em
and she's so smart and independent, I don't think she needs me
B                    C#               Em(PM)
quite half as much as I know I need her
B                     F#         Em
I wonder why there's not another guy that she'd prefer

BRIDGE-

    F#                      E
And when I feel like giving up
                         B
like my world is falling down
       F#
I show up at 3 am
      C#
she's still up watching Vacation, and I
Em             B
see her pretty face

it takes me away to a better place and

CHORUS-
B                      F#               E
I know that everything,know everything,know everything
 G#            F#      B
 everything's gonna be fine-X2

INTRO-(B)

VERSE 3(SAME)
Yeah, my girlfriend takes collect calls from the road
and it doesn't seem to matter that I'm lacking in the bulge
she laughs at my dumb jokes when no one does
she brings me mexican food from Sombrero's just because

BRIDGE(SAME)
And when I feel like giving up
like my world is falling down

VERSE 4(SAME)
I show up at 3 am
she's still up watching Vacation, and I
see her pretty face
it takes me away to a better place and

(PLAY THE LAST CHORUS OVER THESE LYRICS)
(I know that everything [3x]) everything's gonna be fine
(I know that everything [3x]) everything's gonna be fine
(I know that everything [3x]) everything's gonna be fine
(I know that everything [3x]) everything's gonna be fine

(I know that everything [3x]) everything's gonna be fine
(I know that everything [3x]) everything's gonna be fine
(I know that everything [3x]) everything's gonna be fine
(I know that everything [3x]) everything's gonna be fine

====================================================================
A NEW HOPE-

INTRO-
E------------------------------------------------------------------|
B-8-8-8-8-8-8-8-8-8-8-8-8-8-8-8-8-8-8-8-8-8-8-8-8-8-7-7-7-7-7-7-7--|
G-0-0-0-0-0-0-0-0-0-0-0-0-0-0-0-0-0-0-0-0-0-0-0-0-0-0-0-0-0-0-0-0--|
D------------------------------------------------------------------|
A------------------------------------------------------------------|
E------------------------------------------------------------------|

E------------------------------------------------------------------|
B-8-8-8-8-8-8-8-8-8-8-8-8-8-8-8-8-8-8-8-8-8-8-8-8-7-7-7-7-7-7-7-7--|
G-5-5-5-5-5-5-5-5-5-5-5-5-5-5-5-5-7-7-7-7-7-7-7-7-7-7-7-7-7-7-7-7--|
D------------------------------------------------------------------|
A------------------------------------------------------------------|
E------------------------------------------------------------------|

INTRO-PT2-

G G G G Am Am C D X2

VERSE 2-
G            C     D
I've got her in my head
G                C     D
 at night when I go to bed
      Em
and I know it sounds lame, but
C               D         (INTO)
she's the girl of my dreams

E-----------------------------------|
B-8-8-8-8-8-8-8-8--7-7-7-7-7-7-7-7--|
G-0-0-0-0-0-0-0-0--0-0-0-0-0-0-0-0--|
D-----------------------------------|
A-----------------------------------|
E-----------------------------------|

G                     C        D
 And of course I'd do anything for her
G               C        D
 I'd search the moons of Endor
    Em
I'd even walk naked through
C              D     G
the deserts of Tatooi

CHORUS-
         Am                          C
Princess Leia, where are you tonight?
          G
and who's laying there by your side?
      Am                       C
every night I fall asleep with you
    D
and I wake up alone

E------------------------------------------------------------------|
B-8-8-8-8-8-8-8-8-8-8-8-8-8-8-8-8-8-8-8-8-8-8-8-8-8-7-7-7-7-7-7-7--|
G-0-0-0-0-0-0-0-0-0-0-0-0-0-0-0-0-0-0-0-0-0-0-0-0-0-0-0-0-0-0-0-0--|
D------------------------------------------------------------------|
A------------------------------------------------------------------|
E------------------------------------------------------------------|

E------------------------------------------------------------------|
B-8-8-8-8-8-8-8-8-8-8-8-8-8-8-8-8-8-8-8-8-8-8-8-8-7-7-7-7-7-7-7-7--|
G-5-5-5-5-5-5-5-5-5-5-5-5-5-5-5-5-7-7-7-7-7-7-7-7-7-7-7-7-7-7-7-7--|
D------------------------------------------------------------------|
A------------------------------------------------------------------|
E------------------------------------------------------------------|

VERSE 2-

G                           C       D
 And even though I'm not as cool as Han
                 C       D
 I still want to be your man
        Em
 you're exactly the kind of
       C      D
 Alderranian that I need

E-----------------------------------|
B-8-8-8-8-8-8-8-8--7-7-7-7-7-7-7-7--|
G-0-0-0-0-0-0-0-0--0-0-0-0-0-0-0-0--|
D-----------------------------------|
A-----------------------------------|
E-----------------------------------|

G                    C       D
 But when you were available, I was
G               C         D
 drinking Colt 45's with Lando
      Em                    C
I was hanging out in the cantina
   D        G
on Mos Eisley

CHORUS-
         Am                          C
Princess Leia, where are you tonight?
          G
and who's laying there by your side?
      Am                       C
every night I fall asleep with you
    D
and I wake up alone

BRIDGE PT-(PM OPEN STRING NOTES)
E------H-------H-------H-------------P-----------------|
B-0-0-4-7-0-0-4-7-0-0-4-7-0-0-4-0-0-5-4----------------|
G------------------------------------------------------|
D------------------------------------------------------|X4
A------------------------------------------------------|
E------------------------------------------------------|

G G G G  Am Am C D
G D C E D
G D C E D
D D C E D
G D C E D(ILL DO THOSE ANOYING LITTLE LEADS ANOTHER TIME)

Princess Leia
Princess Leia

CHORUS-
         Am                          C
Princess Leia, where are you tonight?
          G
and who's laying there by your side?
      Am                       C
every night I fall asleep with you
    D
and I wake up alone

====================================================================
DEGENERATE-(THIS SONG IS FUNNY BUT I HATE IT)

INTRO-drums & bass

VERSE 1
Bb          F       Dm
Crossed the street, naked at night
Bb   F       Dm            C
bent over to show some moonlight
Bb              F            Dm       C
pulled out some beer and I gulped it down
Bb        F         Dm         C
nude in a gutter is how I was found

VERSE 2-
E-----------------------------------------|
B----------------------------2------------|
G---3------2-----------3--------3---------|
D-----3-----------------------------------|
A-1------3----0---0--5-----3--------------|
E-----------------------------------------|
Thrown in the police car and the door slammed
no noise, just silence, as I screamed, my dick was
jammed, now in prison for one month, no one to see
all I got is a guy Ben Dover

Bb                             F
  Don't like hash, don't like rap
                              Eb
kicked ol' Sally 'cause she's fat
                  F
I'm a jerk, I'm a punk
                       Bb
took a shower 'cause I stunk
                         F
smoked a bong, killed a cat
                        Eb
had my nuts attacked by rats
                       f
dad got nude, I wore a thong
                   Bb
for a hobby I make bombs

SOLO-
E-----------------------------------------------------------|
B-----------------------------------------------------------|
G-3-3-2-2-2-2-----------------3-3-3-3-2-2-2-2-5-3-2-3-3-3-3-|
D-------------5-5-5-3-3-3-3-3-------------------------------|
A-----------------------------------------------------------|
E-----------------------------------------------------------|

E-----------------------------------------------------------|
B-------------------------3-3-3-3-2-2-2-2-5-3-2-3-5/3-------|
G-2-2-2-2-5-5-5-5-3-3-3-3-----------------------------------|
D-----------------------------------------------------------|
A-----------------------------------------------------------|
E-----------------------------------------------------------|

E-----------------------------------------------------------|
B---------------------6-------------------------------------|
G-5-3-2-3-5-7-7-8-8-8---8-8-7-8/5-7-5-7-8-8-7-5-7/5-3-5-----|
D-----------------------------------------------------------|
A-----------------------------------------------------------|
E-----------------------------------------------------------|

E-----------------------------------------------------------|
B-------B---------------------------------------------------|
G-3-3-3-2-0-3-2-2-3-2-0-------------------------------------|
D-----------------------0-0-1-1-1-3-1-1-3-1-1-0-1-----------|
A-----------------------------------------------------------|
E-----------------------------------------------------------|

VERSE 3(SAME)
Went to a farm to tip some cows
forgot that I left my pants down
bent over to pick them up
felt a twelve gauge up my hum-diddy-dum

VERSE 4(SAME)

The farmer took me to his house
showed me the closet from the inside out
the police came, they took me away
saw Ben Dover again and he's still gay

CHORUS-

Bb                             F
  Don't like hash, don't like rap
                              Eb
kicked ol' Sally 'cause she's fat
                  F
I'm a jerk, I'm a punk
                       Bb
took a shower 'cause I stunk
                         F
smoked a bong, killed a cat
                        Eb
had my nuts attacked by rats
                       f
dad got nude, I wore a thong
                   Bb
for a hobby I make bombs

CHORUS-

Bb                             F
  Don't like hash, don't like rap
                              Eb
kicked ol' Sally 'cause she's fat
                  F
I'm a jerk, I'm a punk
                       Bb
took a shower 'cause I stunk
                         F
smoked a bong, killed a cat
                        Eb
had my nuts attacked by rats
                       f
dad got nude, I wore a thong
                   Bb
for a hobby I make bombs

=============================================================
LEMMINGS-

INTRO-
E------------------------------------------------------------|
B------------------------------------------------------------|
G-----------------------4-4-4-4-1-1-1-1-4-4------------------|
D----4----------2-------4-4-4-4-2-2-2-2-4-4-----6-6-6-6------|
A-2-----6---2-------6---2-2-2-2-2-2-2-2-2-2-2-2-6-6-6-6------|
E-------------------------------0-0-0-0-----0-0-4-4-4-4------|

E-------------------------|
B-------------------------|
G-----------------4-4-4-4-|
D-4-4-4-4-6-6-6-6-4-4-4-4-|
A-4-4-4-4-6-6-6-6-2-2-2-2-|
E-2-2-2-2-4-4-4-4---------|

VERSE 1-(PLAY THE INTRO THROUGH THE VERSES,THE LEAD PT)

A freight train to the right, feeling that sting of pride
it's fucking with me, it's fucking with you
all's fair in love and war until you say it
isn't but you're wrong -B E

VERSE 2-(SAME AS THE 1ST VERSE)
Words on the back of flyers, my clothes are in the dryer
it means nothing, nothing is changing
la familia is dead and gone, the children grew up and moved on

CHORUS-
F#                G#                          E
Is it too much to ask for the things to work out this time?

I'm only asking for what is mine
F#                   G#
 I wanted everything, I got it and now I'm gonna
E
throw it away, I'll throw it away (yeah)

VERSE 3-(SAME AS V1)
Prime select and a box of glazed, pulling fly-bys on days
when we were young and innocent
elbow-drop Sundays when Mark Eaton got beat to shit

VERSE 4-(SAME)
Laughing at the bands we hate, all the spots we used to skate
they're still there, but we've gone our own ways
I know it's for the best but sometimes I wonder
will I ever have friends like you again?

CHORUS-(SAME)
Is it too much to ask for the things to work out this time?
I'm only asking for what is mine
I wanted everything, I got it and now I'm gonna
throw it away, I'll throw it away (yeah)

CHORUS-
Is it too much to ask for the things to work out this time?
I'm only asking for what is mine
I wanted everything, I got it and now I'm gonna
throw it away, I'll throw it away (yeah)

VERSE 5-
B                         C#            G#
You're gonna drown in the mess you make
           E
 your self-inflicted hate
B                           C#
 you turn your back on the friends you lose
G#                      E
 when they don't follow all your rules
B               C#                 G#
 But people are what they wanna be
                     E           B
they're not lemmings to the sea
                     C#                G#
maybe it's time you looked at yourself
                          E
and stop blaming life on someone else
============================================================
IM SORRY-

INTRO-(CLEAN)

E-------------------------------------------------------------|
B-------------------------------------------------------------|
G-----------------------6---6-------------------------6--6----|
D---7-9---7-6-------0-------------7-9---7-6--------0----------|X2
A-0-----0-----7-7-7---7---7---0-0-----0-----7--7-7---7--7---0-|
E-------------------------------------------------------------|

CHORUS-(PM)
D                 A
  Don't bide your time
                     E
 'cause it is almost over
                    D
  and I know you're down

  I'll see you around
                A
  And I know it hurts
                             E
  but you're just getting older
                    D
  and I know you'll win
          E                A
  you'll do it once again

INTERLUDE-
E--------------------------------------------------|
B--------------------------------------------------|
G--------------------------------------------------|
D--------------------------------------------------|
A---7-----7---7-----7------7----7-----7-----7------|
E-4---4-4---5---5-5---0--4---4-4--5-5---5-5---0----|

E--------------------------------------------------|
B--------------------------------------------------|
G------------------------------------6---8---------|
D------------------------------------7---9---------|
A---7-----7---7-----7------7----7----7---9---------|
E-4---4-4---5---5-5---0--4---4-4--5--5---7---------|

INTERLUDE 2-

E---------------------------------------------------|
B-------0-2----------0-2---------0-2--------0-2-----|
G-2---2-----2--2---2-----2-2---2-----2-2--------2-1-|
D---2------------2-----------2-----------2----------|X2
A---------------------------------------------------|
E---------------------------------------------------|

RIFF 1- A A D D B B D E

VERSE 1-
A           E
 Just yesterday
D          E                        A
 it always seemed like such a dream
          E               D
 we're unstoppable, indestructible
         E                  A
 nothing happens to our machine
             E        D
 And there's no harm
          E                  A
 at least nothing we can see
         E          D
 as for you, not so true
              E                               D
you couldn't choose where his road would lead

INTERLUDE 2-
E---------------------------------------------------|
B-------0-2----------0-2---------0-2--------0-2-----|
G-2---2-----2--2---2-----2-2---2-----2-2--------2-1-|
D---2------------2-----------2-----------2----------|X2
A---------------------------------------------------|
E---------------------------------------------------|

VERSE 2-

What a loss

you just lost all your sleep

and we've always thought

that this could never happen, you see

That it's so hard

you gotta get up on your feet

'cause the only way, I gotta say

is to move on through the week


CHORUS-
D                 A
  Don't bide your time
                     E
 'cause it is almost over
                    D
  and I know you're down

  I'll see you around
                A
  And I know it hurts
                             E
  but you're just getting older
                    D
  and I know you'll win
          E                A(LET RING)


INTRO-
E-------------------------------------------------------------|
B-------------------------------------------------------------|
G-----------------------6---6-------------------------6--6----|
D---7-9---7-6-------0-------------7-9---7-6--------0----------|X2
A-0-----0-----7-7-7---7---7---0-0-----0-----7--7-7---7--7---0-|
E-------------------------------------------------------------|

A        E        F#        D
IM SORRY,IM SORRY,IM SORRY,IM SORRY
A        E        F#        D
IM SORRY,IM SORRY,IM SORRY,IM SORRY
A        E        F#        D
IM SORRY,IM SORRY,IM SORRY,IM SORRY
A        E        F#        D
IM SORRY,IM SORRY,IM SORRY,IM SORRY
A        E        F#        D
IM SORRY,IM SORRY,IM SORRY,IM SORRY
A        E        F#        D
IM SORRY,IM SORRY,IM SORRY,IM SORRY
A        E        F#        D
IM SORRY,IM SORRY,IM SORRY,IM SORRY
A        E        F#        D
IM SORRY,IM SORRY,IM SORRY,IM SORRY
A        E        F#        D
IM SORRY,IM SORRY,IM SORRY,IM SORRY
CHORUS-
D                 A
  Don't bide your time
                     E
 'cause it is almost over
                    D
  and I know you're down

  I'll see you around
                A
  And I know it hurts
                             E
  but you're just getting older
                    D
  and I know you'll win
================================
(While going to the bathroom)
Oh yeah, oh man, too many beers...
Wha... what's going on? Ahh...
yeah, there we go. Whoooo. Okay.
Uh, no, wait, hang on a second...
ahh, yeah. Rexie, here boy! Here Rex!
Come on boy! Come on boy! Oh, good boy!
Oh, you wanna drink, don't you!
You're a little thirsty dog, aren't you!
Come here boy, okay, here ya go,
here, drink a little, there ya go, good doggy!
Good doggy! Oh Rex, you like that, huh.
I like you Rex.
(continuous dog slurping of toilet water)
(toilet flushing)
=================================================
I`m pretty sure thats all of it,iv`e kown these
songs for awhile,but there to songs that i dont
no to well,coz i dont like em that much,but i did
have a go at them,DEGENERATE & IM SORRY..
The rest shouldnt be to bad,if u find some mistakes
plz let me no..
cheers,have fun......
=================================================
comments
We did not receive enough feedback on this tab! Please rate:
1 2 3 4 5
3 comments total.
0 reply
gmr5953uk wrote on February 20 2006, 10:45 am

on dammit the intro is more like and end on this
E|----------------------------------------------| E|---|
B|----------------------------------------------| B|---|
G|----------------------------------------------| G|---| let
D|-----0-0-2-----0-0-2-----0-0-2------2-2-0-----|X4 D|---| ring
A|-3-3-----------------0-0----------------------| A|-3-|
E|-----------3-3------------------1-1-----------| E|---|

0 reply
gmr5953uk wrote on February 20 2006, 10:46 am

sry that was sposed to be
E|---|
B|---|
G|---| let
D|---| ring
A|-3-|
E|---|

0 reply
need,band wrote on June 2 2006, 02:49 pm

wrong. look at album verse 1 way better than yours but not by much.(just kidding)

I want to post or [tab]
guest
You may want to rate the tab now too:
select rating
Please do not post tabs as comments. Select "correction" instead!