Oops, an error
Loading. Please wait.

Enema Of The State Tab

ver5
ver5

Interactive

More versions @911Tabs.com
1,955 views 1 this week
2 commentsread comments
1 2 3 4 5
worth learning
x 1
Autoscroll
+/-
esc
set tempo
stop
Contributor
Difficulty
intermediate
Hey! There's an official Ultimate Guitar app which is ideal
for learning songs when you're away from computer. Get the app
WARNING: You are trying to view
                                    content from Ultimate-Guitar.com
                                    in an unauthorized application,
                                    which is prohibited.

                                    Please use an official Ultimate
                                    Guitar Tabs application for iPhone,
                                    iPad or Android to access legitimate
                                    chords, guitar, bass, and drum tabs
                                    from Ultimate-Guitar.com database.

                                    Type "ultimate guitar tabs" in Apple
                                    App Store's or Android Market's
                                    search to find the application.
===============================================
    -BLINK 182-ENAMA OF THE STATE-
===============================================
TABBER-MAT WATERS
EMAIL-SLASH_GIBSONS@HOTMAIL.COM
TUNING-EADGBE

SONG LIST-

#1 DUMPWEED
#2 DONT LEAVE ME
#3 ALIENS EXIST
#4 GOING AWAY TO COLLEGE
#5 WHATS MY AGE AGAIN
#6 DYSENTERY GARY
#7 ADAMS SONG
#8 ALL THE SMALL THINGS
#9 THE PARTY SONG
#10 MUTT
#11 WENDY CLEAR
#12 ATHEM
=========================================================================
DUMPWEED-

INTRO-PT 1
e|-----------------------------------------------------------------------|
B|-----------------------------------------------------------------------|
G|----H-P------------H-P-------------H-P---------------H-P---------------|
D|---6-7-6----------6-7-6------------6-7-6------------6-7-6-9------------|X1
A|-2--------0-9-0-2--------0-9-0~-7----------0-9-0--7~----------9--------|
E|-0------7-------0------7--------5--------7--------5---------7----------|

INTRO PT 2
e|-4P0---0-4P0----2P0---0--2P0---4P0---4P0---5P0---5P0-------------------|
B|-----0-------0------0--------0-----0-----0-----0-----0-----------------|
G|-----------------------------------------------------------------------|
D|-----------------------------------------------------------------------|X2
A|-----------------------------------------------------------------------|
E|-----------------------------------------------------------------------|

VERSE 1 (PM)
Em                B                Em               B
Its understood i said in many ways,to scared to run,im to scared to stay
A                  B                        A                B
i said id leave,but i could never leave her,and if i did,you no id never
          Em             B                       Em              B
cheat her,but this i ask,its what i want to know,how you feel if i should
             A               B                       A
choose to go,another guy,you think it`d be unlikely,another guy,
       B
you`d think he`d want to fight me

INTRO P1-X1

CHORUS-
Em          B                      A
Shes a dove,she a fuc*en nightmare,unpredictable,
        B                      Em           B                    A
it was my mistake to stay here,on the go and its way to late to play,
        B
i need a girl that i can train

INTRO PT2-X2

VERSE 2-

Em                B
I heard it once,im sure i heard it twice,
Em                    B
my dad use to give me all of his advice
A                      B
he would say you gotta turn your back and now
A                B
come on son,you havent got a chance now

INTRO PT1-X1

CHORUS-X2

BRIDGE PT1-X4 (3RD & 4TH TIMES ADD VOCALS)

I need a girl that i can train,i need a girl that i can train

e|-----------------------------------------------------------------------|
B|-----------------------------------------------------------------------|
G|-----------------------------------------------------------------------|
D|-------------------4-4-4-4-4-----------------------4-4-4-4-4-----------|
A|-2-2-2-2-2-2-2-2---2-2-2-2-2-----2-2-2-2-2-2-2-2---2-2-2-2-2-----------|
E|-0-0-0-0-0-0-0-0-----------------0-0-0-0-0-0-0-0-----------------------|

e|-----------------------------------------------------------------------|
B|-----------------------------------------------------------------------|
G|-------------------2-2-2-2-2-2-----------------------------------------|
D|-4-4-4-4-4-4-4-4---0-0-0-0-0-0---4-4-4-4-4-4-4-4---2-2-2-2-2-----------|
A|-2-2-2-2-2-2-2-2-----------------2-2-2-2-2-2-2-2---0-0-0-0-0-----------|
E|-----------------------------------------------------------------------|

BRIDGE PT2

Turn your back and run now,you havent got a chance now

e|-4-4-0---0--2-0-0-0--4-4-0---0--5-0-0-0--------------------------------|
B|-------0-------------------0-------------------------------------------|
G|-----------------------------------------------------------------------|
D|-----------------------------------------------------------------------|
A|-----------------------------------------------------------------------|
E|-----------------------------------------------------------------------|

STRUCTURE-

INTRO PT1  X1
INTRO PT2  X2
VERSE 1    X1
INTRO PT1  X1
CHORUS     X1
INTRO PT2  X2
VERSE 2    X1
INTRO PT1  X1
CHORUS     X2
BRIDGE PT1 X2 (NO   VOCALS)

BRIDGE PT1 X2 (WITH VOCALS)
BRIDGE PT2 X4 (WITH VOCALS)
END
==========================================================================
DONT LEAVE ME-

INTRO-

E-------------------------------------------------------------------------|
B-------------------------------------------------------------------------|
G----------2-2-2-2-2-2-----------7-7-7-7-7-7-----------4-4-4-4-4-4--------|
D----------2-2-2-2-2-2-----------7-7-7-7-7-7-----------4-4-4-4-4-4--------|
A-0-0-0-0--0-0-0-0-0-0--0-0-0-0--5-5-5-5-5-5--5-5-5-5--2-2-2-2-2-2--------|
E-------------------------------------------------------------------------|
  x x x x               x x x x               x x x x

E-------------------------------------------------------------------------|
B-------------------------------------------------------------------------|
G-7-7-7-7-7-7-7-7--9-9-9-9-9-9-9-9----------------------------------------|
D-7-7-7-7-7-7-7-7--9-9-9-9-9-9-9-9----------------------------------------|X2
A-5-5-5-5-5-5-5-5--7-7-7-7-7-7-7-7----------------------------------------|
E-------------------------------------------------------------------------|

VERSE 1-
A~
Dont leave me all alone,just drop me off at home
ill be fine,its not the first,just like last time
but a little worse

CHORUS-
E(x)                B             D            Em
  And,she said that im not the one that she thinks about and
A                B           D          Em
  she said it stopped being fun i just bring her down
    A                         B            D             Em
  i said dont dont let your future be destroyed by my past
   A                    B                D
  she said dont let my door hit your ass

VERSE 2-
A~
one more chance ill try this time ill give you your i wont take mine

l`ll listen up pre tend to care go on ahead ill meet you there

CHORUS-X1

INTERLUDE-
        (LETS TRY THIS ONE MORE TIME WITH FEELING-PT)
E--------------------------------------------------------------------|
B-----------10---------------10--------------------------------------|
G-14~--------X---------------X---------------------------------------|
D-X-----7-7--7-7-7------7-7--7--7-7-7--------------------------------|X7
A-12~---0-0--0-0-0------0-0--0--0-0-0--------------------------------|
E--------------------------------------------------------------------|

CHORUS X1

OUTRO-
A~                                           A(oct)          A
Dont leave me all alone just drop me off at home and ill be fine

MARK(YOU WILL BE FINE YOU FUC*KING ASSHOL*)

STRUCTURE-

INTRO      X2
VERSE      X1
CHORUS     X1
VERSE      X1
CHORUS     X1
INTERLUDE  X1
CHORUS     X1
OUTRO      X1

===================================================================
ALIENS EXIST-


INTRO-
E-----------------------------------------------------------------|
B-----------------------------------------------------------------|
G-----------------------------------------------------------------|
D-----------------------------------------------------------------|X1
A-2-2-2-2-2-2-2-2-2-2-2-2-2-2-2-1-1-1-----------------------------|
E-----------------------------------------------------------------|
  x x x x x x x x x x x x x x x x x x

VERSE 1-
B~
  Hey mum theres something in the back room
  i hope its not those cretures from above
  you use to read me storys,as if my dreams were boring
  we  all know conspiracies are dumb

INTERLUDE (PICK SCRAPE)

E----------------------------------------------------------------|
B----------------------------------------------------------------|
G-4-4-4-4-4--4---------------------------------------------------|
D-4-4-4-4-4--4-2-2-2-2-2-2--2-6-6-6-6-6-6--6-2-2-2-2-2-2---------|X2
A-2-2-2-2-2--2-2-2-2-2-2-2--2-6-6-6-6-6-6--6-2-2-2-2-2-2---------|
E--------------0-0-0-0-0-0--0-4-4-4-4-4-4--4-0-0-0-0-0-0---------|

VERSE 1-
B              F#                   G#    E
What if people knew that these were real,
   B               F#             G#      E
id leave my closet door open all night,
  B            C#          G#               E
i know the c.i.a would say,what you hear is all heresay
  B                  F#               G#
i wish someone would tell me what was right

INTERLUDE X2

VERSE 2-
B            F#              G#       E
I am still a skeptic yes you know me,
B                     F#              G#   E
been best friends and will be till we die,
B          C#           C#            E
i got an injection of blood from my erection
B                     F#              G#
my best friend thinks im just humping guys....alright

CHORUS-

B             F#              B                F#
Up all night long,and theres something very wrong,and i

  Know it must be late
 beeb gone since yesterday
E--------------------------------------------------------------|
B--------------------------------------------------------------|
G--------------------------------------------------------------|
D-1--1------1--1-----2--2----2--2------------------------------|X2
A-------2--------2---------2-------2---------------------------|
E--------------------------------------------------------------|

F#     Em       B    F#     Em
Im not like you guys,im not like you

INTERLUDE #2(OCTIVE SOLO)
B# X64(8 BARS)D# X16(2 BARS)    C#
E--------------------------------------------------------------|
B--------------------------------------------------------------|
G-44444444--8-8-8-8-8-8-8-8--8\-6-6-6-6-6-6-6-6-6-6-6-6-6-6-6--|
D-xxxxxxxx--x-x-x-x-x-x-x-x--x\-x-x-x-x-x-x-x-x-x-x-x-x-x-x-x--|
A-22222222--6-6-6-6-6-6-6-6--6\-4-4-4-4-4-4-4-4-4-4-4-4-4-4-4--|
E--------------------------------------------------------------|

E--------------------------------------------------------------|
B--------------------------------------------------------------|
G-6/9-9-9-9-9-9-9-9-9-9-9-9-9-9-9\8-8-8-8-8-8-8-8-8-8-8-8-8-6--|
D-x-x-x-x-x-x-x-x-x-x-x-x-x-x-x-x-x-x-x-x-x-x-x-x-x-x-x-x-x-x--|
A-4-7-7-7-7-7-7-7-7-7-7-7-7-7-7-7-6-6-6-6-6-6-6-6-6-6-6-6-6-4--|
E--------------------------------------------------------------|

BRIDGE-

G#              F#      E           B    F#
Dark and scary,ordinary,explanation information
D#oct         C#oct    Eoct            D#oct  C#oct
nice to no ya paranoia,where my mother bio father

CHORUS X1

OUTRO-

F#     E        B    F#     E        B
Im not like you guys twelve majestic lies

STRUCTURE-

INTRO        X1
VERSE        X1 (BASS)
INTERLUDE    X1
VERSE 2      X1
CHORUS       X1
INTERLUDE #2 X1
BRIDGE       X1
CHORUS       X1
OUTRO        X1
======================================================================
GOING AWAY TO COLLEGE-(CAPO 2nd FRET)

INTRO-(PT 1)

E-x-x--x-x-x--x-x-x-x-x-x---x-x--x-x-x-x-x-x-x-x-x--------|
B-2-2--2-2-2--0-0-0-0-0-0---2-2--2-2-2-0-0-0-0-0-0--------|
G-2-2--2-2-2--2-2-2-2-2-2---2-2--2-2-2-2-2-2-2-2-2--------|
D-x-x--x-x-x--x-x-x-x-x-x---x-x--x-x-x-x-x-x-x-x-x--------|
A-0-0--0-0-0--0-0-0-0-0-0---x-x--x-x-x-x-x-x-x-x-x--------|
E---------------------------------------------------------|

E-x-x--x-x-x--x-x-x-x-x-x---x-x--x-x-x-x-x-x-x-x-x--------|
B-2-2--2-2-2--0-0-0-0-0-0---2-2--2-2-2-2-0-0-0-0-0--------|
G-2-2--2-2-2--2-2-2-2-2-2---2-2--2-2-2-2-2-2-2-2-2--------|
D-0-0--0-0-0--0-0-0-0-0-0---0-0--0-0-0-0-0-0-0-0-0--------|X2
A-0-0--0-0-0--0-0-0-0-0-0---0-0--0-0-0-0-0-0-0-0-0--------|
E---------------------------------------------------------|

INTRO (PT 2)

E---------------------------------------------------------|
B---------------------------------------------------------|
G------------6-------------6-------------6----------------|
D-----7------------7------------7---------------9-----9---|X2
A-0-0---0-0----0-0---0-0----5-5----5-5------7-7---7-7-----|
E---------------------------------------------------------|

VERSE 1-

A~
Please take me by the hand,its so cold out tonight ill

put blankets on the bed,but i wont turn out the lights
     A              D         E
just,dont forget to,   think about me and i,
A                D                E
wont forget you,    ill write you one a week she said

INTRO PT 2 X2

VERSE 2-
A~
Why does it feel tha same to fall in love or break it off

and if young love is just a game then,

i must have missed the kick off
A              D          E
Dont depend on me to ever follow through on
A            D               E
anything but,  id go through hell for you and

CHORUS-

C#oct      Doct      A           E
  I havent been this scared,in a long time
C#oct      Doct        A               E
  and im so unprepared   so heres your valentine
C#oct         D#oct        A
  bouquet of clumbsy words,   a simple melody
C#oct            D#oct      A
  this worlds an ugly place,  but your so beautiful to me

INTRO PT 1 X2

VERSE 3(ill just put the tabs for this pt,its easy to work out)

Ill think about the times you kissed me after class and
you put up with my friend,i acted like an ass,id
ditch my lecture,to watch the girls play soccer
is my picture still hanging in your locker

E------------------------------------------------------------|
B------------------------------------------------------------|
G-----6-----6------6-----6------6------6------7--------------|
D----------------------------------------------------7-------|X2
A-0-0---0-0----0-0---0-0----5-5----5-5----7-7----7-7---------|
E------------------------------------------------------------|

CHORUS X1
END ON Em

STRUCTURE-

INTRO PT1
INTRO PT2
VERSE 1
INTRO PT2
VERSE 2
CHORUS
INTRO PT1
VERSE 3
CHORUS
END Em

===================================================================
WHATS MY AGE AGAIN?-(THIS IS PROBLEY THE HARDEST  TO PLAY)
                          (OUT OF ALL OF THEM)
INTRO-
E-----------------------------------------------------------------|
B------11----------11---------11-----------11---------------------|
G---11----11----11----11---11----11-----11----11------------------|
D-9---------------------------------------------------------------|X2
A------------9----------------------------------------------------|
E------------------------9-----------11---------------------------|

VERSE 1-

E-----------------------------------------------------------------|
B------11-------11-------11-------11------------------------------|
G---11---11---11--11---11--11---11--11----------------------------|
D-9---------------------------------------------------------------|X3
A-----------9-----------------------------------------------------|
E--------------------9--------11----------------------------------|

E-----------------------------------------------------------------|
B------11-------11-------11------11-------11------11--------------|
G---11---11---11--11---11--11--11--11---11--11--11--11------------|
D-9-----------------------------------9--------9------------------|X1
A-----------9-----------------------------------------------------|
E--------------------9--------9-----------------------------------|

VERSE 1(LYRICS)
I took her out it was a friday night,
i wore cologne to get the feeling right
we started makking,then she took off my pants
but then i turned on the tv,and thats about the time she walked

CHORUS-

F#   C#       D#      B                     F#  C#
Away from me,    nobody likes you when your twenty three
          B              F# C#    D#               B
and your still amused by tv shows,  what the hell is a.d.d
F#               C#                D#
my friends say i should act my age,   whats my age again,
C#
   whats my age again

INTRO-

VERSE 2 (PM)

B          F# C#         D#      B             F#  C#
Then later on,  on the drive home i called her mum,
       D#       B          F#         C#               D#
from a pay phone,i said i was the cops  and your husbands in jail,
B                   F#         C#
 this state looks,down on sodamy
      B
and thats about the time that bitch hung

CHORUS-
F#  C#   D#     B                      F#     C#   D#
Up on me,  nobody likes you when your twenty three
         B                   F#         C#
and are still more amused by prank phone calls
              B
what the hell is call i.d
    F#             C#              D#               C#
my friends say i should act my age,   whats my age again

whats my age again

INTERLUDE-
E--------------------------------------------------------------|
B---11----11-------11----11------------------------------------|
G------11----11-------11----11-------H--------H--------H-------|
D-9--------------9------------------8-9------8-9------8-9------|
A-6----------------------------9-9-9----9-9-9----9-9-9---------|
E--------------------------------------------------------------|
                                 `And thats about the time`
E------------------------------   -----------------------|
B------------------------------   -----------------------|
G--------H-----11--------------   ---------11------------|
D-------8-9--8--------8--------X1 -----8----------8------|X7
A-9-9-9-----9-9---9-9----------   -9-9---9----9-9--------|
E------------------------------   -----------------------|

CHORUS-F# C# D# B

And thats about the time that she broke up with me
no one should take them-selves so seriously
with many years ahead to fall in line
why would you wish that on me,i never want to act my age
whats my age again,whats my age again

OUTRO
F# C# D# B X3

F# C# D# C#
            Whats my age again

END ON B

STRUCTURE-

INTRO
VERSE
CHORUS
INTRO
VERSE
CHORUS
INTERLUDE
CHORUS
OUTRO
END
================================================================
DYSENTERY GARY-  (This is kind of a hard song to match the)
                  (notes with lyrics,ill do my best tho)

INTRO-(2nd Time has chords behind it)
  D                       G           A         
E----------------------------------------------------------------
B------------------------------------------------------------7---
G---------------------------------------------------------7--7---
D-4-4-4-0-0-0-5-5-5-0-0-0-------4-4-4---------------------7--7---
A-------------------------------------0-0-0-4-4-4-4-4-4-0-5--5---
E-------------------------3-3-3----------------------------------

VERSE 1-(ILL PUT LYRICS UNDERNEITH)
E----------------------------------------------------------------
B----------------------------------------------------------------
G-7------------7-------------------------2--------2---------2----
D-7---------4--7---------5--5---------5--2--------2---------2----
A-5-0-0-0-0-5--5-0-0-0-0-4--5-0-0-0-0-5--0--------0---------0----
E------------------------------------------3-3-3-3--3-3-3-3---3--
    x x x x      x x x x      x x x x      x x x x  x x x x   x 
(verse 1)
Got a lotta heart ache
he's a fucking weasel
his issues make my mind ache
want to make a deal
cause I love your little motions
you do with your pigtails
what a nice creation
worth another night in jail

INTERLUDE-(CLEAN)
  D
E---------------------------------
B-3-3-3-3-3-3--3-3-3-3--2-2-2-2---
G-2-2-2-2-2-2--0-0-0-0--2-2-2-2---
D-0-0-0-0-0-0--0-0-0-0--2-2-2-2---
A---------------------------------
E---------------------------------

(PRE CHORUS)(DIST)
D
He's a player, diarrhea giver

tried to grow his hair out

when friends were listening to slayer
G
I would like to find him Friday night
A
hanging out with mom and trying on his fathers tights

(CHORUS)
E-15-14---------------  -3-2-------------
B-------15------------  -----3-----------
G----------12-12-12---  -------0-0-0-----
D---------------------OR-----------------X6
A---------------------  -----------------
E---------------------  -----------------
life just sucks, I lost the one, I'm giving 
up she found someone
there's plenty more, girls are such a drag

(INTRO)

VERSE 2(SAME AS V1)
So all you little ladies
be sure to choose the right guys
you'll come back to me maybe
I'll shower you with lies
got a lotta heart ache
he's a fucking weasel
decisions make my mind ache
want to make a deal

BRIDGE-(PLAY INTERLUDE OVER IT (X2)
Ease away the problems and the pain
the girl chose the one guy who makes
 you want to kick and scream
all along, you wish that she would stay
fuck the guy who took and ran away

(PRE CHORUS)
D
He's a player, diarrhea giver

tried to grow his hair out

when friends were listening to slayer
G
I would like to find him Friday night
A
hanging out with mom and trying on his fathers tights

(CHORUS)
E-15-14---------------  -3-2-------------
B-------15------------  -----3-----------
G----------12-12-12---  -------0-0-0-----
D---------------------OR-----------------X6
A---------------------  -----------------
E---------------------  -----------------
life just sucks, I lost the one, I'm giving 
up she found someone
there's plenty more, girls are such a drag

INTERLUDE 2-
E-------------------------------
B-------------------------------
G-------------------------------
D-4-5-4--2-------4-5-4---2---0--X2
A-5----------0---5---------0----
E----------3--------------------

CHORUS-
G                  A
Fuck this place, I lost the war
  D                  B
I hate you all, your mom's a whore
 G
where's my dog?
       A
'cause girls are such a drag

OUTRO-
E---------------------------------------
B---------------------------------------
G---------------------------------7-----
D-4-4-4-0-0-0-5-5-5-4-4-4---------7-----
A---------------------------------5-----
E-------------------------3/5-5-5-------
END-

===============================================================









=================================================================

=================================================================
ADAMS SONG-                  This is the D chord i use-
TUNING-Whole step down        F-4--
                              A-5--

INTRO-(CLEAN)
D---------------------------------------------------------------|
A---------------------------------------------------------------|
F---------------------------------------------------------------|
C---4-0---4-0---4-0--4-0---4-0---4-0---4-0---4-0----------------|X2
G-2-----2----------------0-----0-----------0--------------------|
D-------------3-----3----------------3--------------------------|

VERSE 1(CLEAN)
D              G            B                   G
 I never thought,id die alone,i laughed the loudest who`d have known
D                 G               B                  G
 i traced the cord back to the wall,no wonder,if was never plugged
         D              G           B                   G
 in at all,I took my time,hurried up,the choice was mine,i didnt
            D               G       B           G
 think enough,im to deprested,to go on,youl be sorry when im

 INTERLUDE-(CLEAN)
  gone
D-------------------------------------------------------------|
A-------------------------------------------------------------|
F-----0------0------0------0----------------------------------|
C---7------7------9------9-----4-0----4-0-----4-0----4-0------|X2
G-5------5------7------7-----2------2-------------------------|
D-------------------------------------------3------3----------|

CHORUS-(CLEAN)
D          E                B             G                    D
I never conqered rarely came,sixteen just held such better days
           E                B             G
days when i still felt alive, we couldnt wait to get out

CHORUS PT2(DIST)
F#                    G              F#              D
side the world is wide to late to try the tour was over we`d survived
F#             E            G                 D
  i couldnt wait till i got home to pass the time in my room alone

INTRELUDE-(CLEAN)

VERSE 2-(CLEAN)
D             G              B               G
 I never thought i`d die alone,another six months ill be unknown
D                 G                 B                    G
 give all my things,to all my friends,you`ll never step foot in
            D                   G           B                  G
my room again,you`ll close it off,board it up,remember the time
                    D             G            B            G
that i spilled a cup,of apple juice in the hall,please tell mum

 this is not her fault

INTERLUDE-(CLEAN)

CHORUS(SAME CHORDS & PROGRESSION JUST DIFFERENT LYRICS)

I never conqered rarely came,but tomorrow holds such
better days,days when i can still feel alive
when i cant wait to get out
(pt2)
side the world is wide the time goes by
the tour is over i`ve survived
and i cant wait till i get home
to pass the time in my room alone

INTERLUDE 2(PIANO PT)
NOTE-THE THINGS THAT LOOK LIKE SPERM(~)=HOLD)

D-------------------------------------------------------------|
A-------------------------------------------------------------|
F-----0~-----0~---------0~----0~---------0~-----0~------------|
C---4~-----4~----4~---4~----4~----4~---4~-----4~-----4~-------|
G-5~-----5~----5~---5~----5~----5~---5~-----5~-----5~---------|
D-------------------------------------------------------------|

D-------------------------------------------------------------|
A-------------------------------------------------------------|
F-----0~---------------0~--0~-----------0~--------------------|
C---4~--0~--0~--0~---4~------4~--4~---4~----4~---0~-----------|
G-5~------5~--5~---5~----5~----5~---5~----5~--5~---5~---------|
D-------------------------------------------------------------|

D-------------------------------------------------------------|
A-------------------------------------------------------------|
F-------------------------------0---0-----------0-------------|
C---------------0---4---------4-------4---4---4-----4---0-----|
G-----7---7---7---0-------5-5-----5-----5---5-----5---5-------|
D-5-7---5---5---------5-7-------------------------------------|

D-------------------------------------------------------------|
A-------------------------------------------------------------|
F-------------------------------0---0-----------0-------------|
C---------------0---4---------4-------4---4---4-----4---0-----|
G-----7---7---7---0-------5-5-----5-----5---5-----5---5-------|
D-5-7---5---5---------5-7-------------------------------------|

D------------------------------      ----------------------|
A------------------------------      ----------------------|
F-------------------------0----      ---7---7---7---7------|
C---------------0---4---4------ THEN --0---0---0---0-----X-|
G-----7---7---7---0---5-----5--      -5---5---5---5--------|
D-5-7---5---5------------------      ----------------------|

CHORUS-

END ON F#

STRUCTURE-

INTRO-
VERSE-1
INTERLUDE-1
CHORUS
INTERLUDE-1
VERSE-2
INTERLUDE-2
CHORUS
INTERLUDE(PIANO)
CHORUS
END
===================================================================
ALL THE SMALL THINGS-(I THINK EVERYONE KNOWS THIS SONG)
                      ( SO ILL JUST DO A BASIC VERSION)

INTRO-
E------------------------------------------------------------------|
B---------------------6-6-6-6-6-6-6-6------------------------------|
G-----5-5-5-5-5-5-5-5-x-x-x-x-x-x-x-x------------------------------|
D-5-3-5-5-5-5-5-5-5-5-3-3-3-3-3-3-3-3-5-5-5-5-5-5-5-5------3-3-3---|X2
A-5-3-3-3-3-3-3-3-3-3-x-x-x-x-x-x-x-x-5-5-5-5-5-5-5-5-0000-3-3-3---|
E-3-1---------------------------------3-3-3-3-3-3-3-3------1-1-1---|
                                                      ****
VERSE 1-

C G F G

All the,small things,true care,truth brings
I'll take,one lift,your ride,best trip
always,I know,you'll be,at my show
watching,waiting,commiserating

PRE CHORUS-
C
Say it ain't so, I will not go
                                 C
turn the lights off, carry me home

CHORUS-
Na,na,na,na,na,na,na,na,na,na
G              F
na,na,na,na,na,na,na,na,na,na

INTERLUDE-1
E---------------------------------------------------------|
B---------------------------------------------------------|
G-55555555-10101010-9999-77777777-7------555--------------|
D-xxxxxxxx-xxxxxxxx-xxxx-xxxxxxxx-x------xxx--------------|X2
A-33333333-88888888-7777-55555555-5-0000-333--------------|
E---------------------------------------------------------|
                                    ****

VERSE 2(SAME)
Late night,come home,work sucks,I know
she left me roses by the stairs
surprises let me know she cares

PRE CHORUS(SAME)
Say it ain't so, I will not go
turn the lights off, carry me home

CHORUS(SAME)
Na, na, na, na....

INTERLUDE-2

E---------------------------------------|
B-5-------------------------------------|
G-5----5-7----5-5-5-5--4-4-6-6----------|
D-5----5-5-----5-5-5-5--5-5-5-5---------|(PM PT X4)
A-3----3-5------------------------------|
E---------------------------------------|
               *******   *******
 (BUILD UP PY)
E------------------------------------------|
B-5-5-5-5----------------------------------|
G-5-5-5-5---5-5-5-5---7-7-7-7--------------|
D-5-5-5-5---5-5-5-5---5-5-5-5--------------|
A-----------3-3-3-3---5-5-5-5--------------|
E------------------------------------------|

CHORUS-(SAME)

Say it ain't so, I will not go
turn the lights off, carry me home
Na, na, na, na....

Say it ain't so, I will not go
turn the lights off, carry me home
keep your head still, I'll be your thrill
the night will go on, my little windmill

Say it ain't so, I will not go
turn the lights off, carry me home
keep your head still, I'll be your thrill
the night will go on,
the night will go on,
my little windmill

STUCTURE-

INTRO-
VERSE 1-
PRE CHORUS-
CHORUS-
INTERLUDE -
VERSE 2-
PRE CHORUS-
CHORUS-
INTERLUDE 2-
CHORUS-
END-
===============================================================
THE PARTY SONG-


























































==================================================================
============================================================
WENDY CLEAR-

INTRO-
E----------------    ------------------|
B----------------    ------------------|
G----------------    ---0--------------|
D---5-----3-2---- OR -------0-3-2------|X8
A-3---3-5--------    -3---3------------|
E----------------    ------------------|

VERSE 1
C
Let's take the boat out on the bay
                         G   F
forget your job for just one day
A                 F          G  C
 I wish it didn't have to be so bad
C
 it might be inappropriate because
                                 G  F
either way our band gets dropped,oh yeah
A                 F           G C
 I wish it didn't have to be so bad

CHORUS-

G                  F                    C
 But I'd play with fire to break the ice
G                    F             C
 and I'd play with a nuclear device
A                F
 is it something I'll regret?
C
 why do I want what I can't get?
A                 F
 I wish it didn't have to be so bad
(START INTRO ON`BAD`)

INTRO-X6

VERSE 2-(BASS)

The three-date theory is getting old
everyone is getting left out in the cold
I wish it didn't have to be so bad
So I'll see you with another guy
who pretends not to hear you when you cry, oh yeah
I wish it didn't have to be
G  C
so bad

CHORUS-

But I'd play with fire to break the ice
and I'd play with a nuclear device
is it something I'll regret?
why do I want what I can't get?
I wish it didn't have to be so bad

BRIDGE-(ILL TAB THIS BIT OUT,JUST LISTEN FOR THE TIMING)
                              F        C
E------------------------------------------------------------------------|
B------------------------------------------------------------------------|
G------------------------------------------------------------------------|  
D-2-2---------5-5-------------33333333-5555555555555555------------------|
A-0-0---3-3---3-3---5-5---7-7-33333333-5555555555555555------------------|    
E-------1-1---------3-3---5-5-11111111-3333333333333333-(GO 2 THE INTRO--|
  * *   * *   * *   * *   * *                             (INSTEAD)
I'll be moving on, moving on                                 (C`S)
moving on, and on and on
moving on, moving on
moving on and on and on

INTRO-X8

CHORUS(CLEAN)

But I'd play with fire to break the ice
and I'd play with a nuclear device
is it something I'll regret?
why do I want what I can't get?
I wish it didn't have to be so bad

OUTRO-(DIST)(*=HIT NOTE ONCE)
G                 F             C
 I wish it didn't have to be so bad
 I wish it didn't have to be so bad
C*                F*            C*
 I wish it didn't have to be so bad


STRUCTURE-

INTRO-
VESRE-
CHORUS-
INTRO-
VERSE-
CHORUS-
BRIDGE-
INTRO-
CHORUS(CLEAN)-
OUTRO-
END-
================================================
ANTHEM-

INTRO-
E-------------------------------------------
B--------------------------------------------
G-4-4-4-4-4--4-4-4-4-4--8-8-8-8-8--8-8-8-8-8-
D-x-x-x-x-x--x-x-x-x-x--x-x-x-x-x--x-x-x-x-x-
A-2-2-2-2-2--2-2-2-2-2--6-6-6-6-6--6-6-6-6-6-
E--------------------------------------------

E--------------------------------------------
B--------------------------------------------
G-9-9-9-9-9--6-6-6-6-6--9-9-9-9-9--6-6-6-6-6-
D-x-x-x-x-x--x-x-x-x-x--x-x-x-x-x--x-x-x-x-x-
A-7-7-7-7-7--4-4-4-4-4--7-7-7-7-7--4-4-4-4-4-
E--------------------------------------------

VERSE 1-(oct)
B  
Home show, mom won't know
E                C#
run out the back door
       E                 C#
he's passed out on the floor
B  
third time, been caught twice
   E
forgive our neighbor Bob
   E                  C#
I think he humped the dog

CHORUS-
G#                 F#               E
  But good things come to those who wait
            F#
  cause she laid me
G#            F#             E
  and mom and dad posses the key
          F#
  instant slavery
G#              F#
  no need to explain the plan
     E            F#
  no need to even bother
G#             F#                E
  I'll pack my bags I swear I'll run
          F#
  wish my friends were 21

INTERLUDE-
E-------------------------------------
B-------------------------------------
G-4-4-4-4-4--4-4-4-4-4--4-4-4-4-4-----
D-4-4-4-4-4--4-4-4-4-4--4-4-4-4-4--2--
A-2-2-2-2-2--2-2-2-2-2--2-2-2-2-2--2--
E----------------------------------0--

VERSE 2-
B           D#
White lies, bloodshot eyes
 E             F#   E                F#       
breath of alcohol, stole it from the mall
B         
how's Chris marked with lipstick
E                          E                  F#
better call their fathers, sleeping with your daughters

CHORUS-
G#                 F#               E
  But good things come to those who wait
            F#
  cause she laid me
G#            F#             E
  and mom and dad posses the key
          F#
  instant slavery
G#              F#
  no need to explain the plan
     E            F#
  no need to even bother
G#             F#                E
  I'll pack my bags I swear I'll run
          F#
  wish my friends were 21

BRIDGE-
B             E
 You don't belong
             B              F#
you left the kids to carry on
                   B
you planned their fall
              E
to bad you're wrong
             B                   F#
don't need a mom dad slave drive song
          B
I time bomb
          E
I time bomb
          G#
I time bomb
          F#
I time bomb
         
I time bomb

INTERLUDE-2(START IT ON `BOMB`)
E------------------------------------
B------------------------------------
G------------------------------------
D-1--------1------1--------1---------X2
A------4-----2----------4-------2----
E---2----------0-----2--------0------

INTERLUDE 3-
E-----------------------------------------------
B-----------------------------------------------
G-----------------------------------------------
D-----1-----1-----4-----4------1----1----4----4-
A-2-2---2-2---2-2---2-2----2-2---2-2--2-2--2-2--
E-----------------------------------------------

E------------------------------------------------
B------------------------------------------------
G------------------------------------------------
D------------------------------------------------
A-----2-----2-----4-----4-----2-----2-----4----4-
E-0-0---0-0---2-2---2-2---0-0---0-0---2-2---2-2--

VERSE 3(INTERLUDE-3)
Turn low the radio
I think I hear my dad
yelling at the band

CHORUS-
G#                 F#               E
  But good things come to those who wait
            F#
  cause she laid me
G#            F#             E
  and mom and dad posses the key
          F#
  instant slavery
G#              F#
  no need to explain the plan
     E            F#
  no need to even bother
G#             F#                E
  I'll pack my bags I swear I'll run
          F#
  wish my friends were 21

BRIDGE-
B             E
 You don't belong
             B              F#
you left the kids to carry on
                   B
you planned their fall
              E
to bad you're wrong
             B                   F#
don't need a mom dad slave drive song

 I TIME BOMB,        I TIME BOMB,I TIME BOMB        I TIME BOMB
E--------------------------------------------------------------
B--------------------------------------------------------------
G------------------------------------------------------------4-
D-4-4-4-4-4-4--1---4--------1-------------------1---1-2------4-
A-4-4-4-4-4-4----2------------2--------------------------4---2-
E-2-2-2-2-2-2-------------------0-------2-4--------------------

==================================================
Thats the whole thing,any comments or 
mistakes let me no.
CHEERS- 
==================================================         
comments
We did not receive enough feedback on this tab! Please rate:
print report bad tab
1 2 3 4 5
2 comments total.
0 reply
blink182_4_life wrote on February 20 2006, 08:49 am

ok i rated it a 3.its not that good.some of the songs r wrongly tab'd.All the small things beginning is partially wrong so is dumpweed and a few other songs.so i give it a 3.nice try though.some songs r correct but not most or all of em

0 reply
huh?!?blah wrote on February 23 2006, 08:08 am

k dude, your last song, Anthem, the starting is totally wrong, if you've been playing guitar long enoug, it's easy to tell they don't play the b chord for as many times as you say they do, cause after the 5th time, they had a note onto it, which is d#, they play that five times, then they play the same b chord, but this time, they switch the d# to a E, and they play that five times, but you suck at these anyways, peace out

I want to post or [tab]
guest
You may want to rate the tab now too:
select rating
Please do not post tabs as comments. Select "correction" instead!