Oops, an error
Loading. Please wait.

Greatest Hits Tab

72,761 views 63 this week
17 commentsread comments
1 2 3 4 5
accurate
x 21
add to favorites launch autoscroll
font size
0
reset
Autoscroll
+/-
esc
set tempo
stop
Contributor
WARNING: You are trying to view
                                    content from Ultimate-Guitar.com
                                    in an unauthorized application,
                                    which is prohibited.

                                    Please use an official Ultimate
                                    Guitar Tabs application for iPhone,
                                    iPad or Android to access legitimate
                                    chords, guitar, bass, and drum tabs
                                    from Ultimate-Guitar.com database.

                                    Type "ultimate guitar tabs" in Apple
                                    App Store's or Android Market's
                                    search to find the application.
---------------------------------------------------------------------------
                             Greatest Hits - Blink 182
----------------------------------------------------------------------------

Tabbed by Punx300
Email- Karlene_Bean@hotmail.co.uk / Karlene_Evans@hotmail.com
Note - There isn't a guitar tab for this album so i thought i do one...
All Standard Tuning

1.Carousel
2.M+M's
3.Dammit
4.Josie
5.What's My Age Again?
6.All The Small Things
7.Adam's Song
8.Man Overboard
9.The Rock Show
10.Firstdate
11.Stay Together For The Kids
12.Feeling This
13.I Miss You
14.Down
15.Always
16.Not Now
17.Another Girl Another Planet(UK Bonus Track)
18.Go (BBC Radio 1 Session) (UK Bonus Track)


1.Carousel
                                                                        x1
e|---------------------------------------------------------------------|
B|---------------------------------------------------------------------|
G|---------------------------------------------------------------------|
D|-------------------------------------------4-5-5-5-4-4-4-------------|
A|-12-12-12-10-10-10-9--12-12-12-10-10-10-9----------------5--5-5-5-5--|
E|---------------------------------------------------------------------|

                                                                 X1
e|--------------------------------------------------------------|
B|--------------------------------------------------------------|
G|--------------------------------------------------------------|
D|------------------------------------4-5-5-5-4-4-4-------------|
A|-10-10-10-9-9-9-7--10-10-10-9-9-9-7---------------5--5-5-5-5--|
E|--------------------------------------------------------------|

                                                                        X1
e|---------------------------------------------------------------------|
B|---------------------------------------------------------------------|
G|---------------------------------------------------------------------|
D|-------------------------------------------4-5-5-5-4-4-4-------------|
A|-12-12-12-10-10-10-9--12-12-12-10-10-10-9----------------5--5-5-5-5--|
E|---------------------------------------------------------------------|

                                                                        X1
e|---------------------------------------------------------------------|
B|---------------------------------------------------------------------|
G|---------------------------------------------------------------------|
D|------------------------------------4-5-5-5-4-4-4--------------------|
A|-10-10-10-9-9-9-7--10-10-10-9-9-9-7---------------5--5-5-5-5----9-10-|
E|---------------------------------------------------------------------|

                                                                        X2
e|----------------------------------------------------------------------|
B|----------------------------------------------------------------------|
G|----------------------------------------------------------------------|
D|----4-4-5-7-5-4-------------------------------------------------------|
A|--5-------------5-----4-4-5-7-5-4------7-7-9-10-10-9-9----5-5---5---5-|
E|-------------------5--------------5--7------------------3-----3---3---|

                                X4
e|----------------------------|
B|----------------------------|
G|----------------------------|
D|-77777----------------------|
A|-55555--77777--99999--55555-|
E|--------55555--77777--33333-|

                                                   X2
e|------------------------------------------------|
B|------------------------------------------------|
G|-7--7-7-7-7-------------------------------------|
D|-7--7-7-7-7--7--7-7-7-7--9--9-9-9-9--5--5-5-5-5-|
A|-5--5-5-5-5--7--7-7-7-7--9--9-9-9-9--5--5-5-5-5-|
E|-------------5--5-5-5-5--7--7-7-7-7--3--3-3-3-3-|

                    X2
e|--------------------|
B|--------------------|
G|--------------------|
D|-4---2---0-2-0------|
A|---------------4-0--|
E|--------------------|
                                                           X4
e|-----------------------------------------------------------|
B|-----------------------------------------------------------|
G|-----------------------------------------------------------|
D|4-4-4-4-4-4-4-4-2-2-2-2-2-2-2-2-4-4-4-4-4-4-4-4-0-2-0------|
A|------------------------------------------------------0-4--|
E|-----------------------------------------------------------|

                                                       X4
E|-------------------------------------------------------|
B|-------------------------------------------------------|
G|-7---7-7-7-7-------------------------------------------|
D|-7---7-7-7-7---7---7-7-7-7---9---9-9-9-9---5---5-5-5-5-|
A|-5---5-5-5-5---7---7-7-7-7---9---9-9-9-9---5---5-5-5-5-|
E|---------------5---5-5-5-5---7---7-7-7-7---3---3-3-3-3-|

                                         X4
e|----------------------------------------|
B|----------------------------------------|
G|--7-7-7-7---9-9-9-9---------------------|
D|--7-7-7-7---9-9-9-9---7-7-7-7---5-5-5-5-|
A|--5-5-5-5---7-7-7-7---7-7-7-7---5-5-5-5-|
E|----------------------5-5-5-5---3-3-3-3-|

                                                               X2
e|------------------------------------------------------------|
B|------------------------------------------------------------|
G|------------------------------------------------------------|
D|-4-4-4-4-4-4-4-4-2-2-2-2-2-2-2-2-4-4-4-4-4-4-4-4-0-0-2-0----|
A|---------------------------------------------------------4--|
E|------------------------------------------------------------|

                                                          X2
e|-------------------------------------------------------|
B|-------------------------------------------------------|
G|-7---7-7-7-7-------------------------------------------|
D|-7---7-7-7-7---7---7-7-7-7---9---9-9-9-9---5---5-5-5-5-|
A|-5---5-5-5-5---7---7-7-7-7---9---9-9-9-9---5---5-5-5-5-|
E|---------------5---5-5-5-5---7---7-7-7-7---3---3-3-3-3-|

                                 X1
e|------------------------------|
B|------------------------------|
G|------------------------------|
D|----4-4--4-4-4----------------|
A|-5----------------4-4--4-4-4--|
E|---------------5--------------|

                                                                 X4
e|--------------------------------------------------------------|
B|--------------------------------------------------------------|
G|--------------------------------------------------------------|
D|----4-5-7-5-4-------------------------------------------------|
A|--5-----------5----4-5-7-5-4------6-7-9-7-6------2-3-5-3-2----|
E|-----------------5-----------5--7-----------7--3-----------3--|

                                            X4
e|---------------------------------------- ---|
B|---------------------------------------- ---|
G|--7-7-7-7---9-9-9-9--------------------- ---|
D|--7-7-7-7---9-9-9-9---7-7-7-7---5-5-5-5- -7-|
A|--5-5-5-5---7-7-7-7---7-7-7-7---5-5-5-5- -7-|
E|----------------------5-5-5-5---3-3-3-3- -5-|

----------------------------------------------------------------------------
2.M+M's

Intro                                                         x4
e|-0-0-0-4-0-0-5-0-0-7-5-4-5-0---0-0-0-2-0-0-4-0-0-5-4-2-0---|
B|-----------------------------------------------------------|
G|-----------------------------------------------------------|
D|-----------------------------------------------------------|
A|-----------------------------------------------------------|
E|-----------------------------------------------------------|

Verse                                                                    x2
e|----------------------------------------------------------------------|
B|----------------------------------------------------------------------|
G|---9---9---9---9----9---9---9---9----9---9---9---9----9---9---9---9---|
D|-----------------------------------6---6---6---6----7---7---7---7-----|
A|-7---7---7---7----9---9---9---9---------------------------------------|
E|----------------------------------------------------------------------|

Pre Chorus                                                x2
e|-------------------------------------------------------|
B|-------------------------------------------------------|
G|--------------4-4-4-4-4-4--6-6-6-6-6-6-----------------|
D|-2-2-2-2-2-2--4-4-4-4-4-4--6-6-6-6-6-6--4-2-4-2--1-2---|
A|-2-2-2-2-2-2--2-2-2-2-2-2--4-4-4-4-4-4-----------------|
E|-0-0-0-0-0-0-------------------------------------------|

Chorus                                   x4
e|--------------------------------------|
B|--------------------------------------|
G|--------------------------------------|
D|-4-4-4-4--7-7-7-7--2-2-2-2--9-9-9-9---|
A|-4-4-4-4--7-7-7-7--2-2-2-2--9-9-9-9---|
E|-2-2-2-2--5-5-5-5--0-0-0-0--7-7-7-7---|

Intro                                                         x4
e|-0-0-0-4-0-0-5-0-0-7-5-4-5-0---0-0-0-2-0-0-4-0-0-5-4-2-0---|
B|-----------------------------------------------------------|
G|-----------------------------------------------------------|
D|-----------------------------------------------------------|
A|-----------------------------------------------------------|
E|-----------------------------------------------------------|

Verse                                                                    x2
e|----------------------------------------------------------------------|
B|----------------------------------------------------------------------|
G|---9---9---9---9----9---9---9---9----9---9---9---9----9---9---9---9---|
D|-----------------------------------6---6---6---6----7---7---7---7-----|
A|-7---7---7---7----9---9---9---9---------------------------------------|
E|----------------------------------------------------------------------|

Pre Chorus                                                x2
e|-------------------------------------------------------|
B|-------------------------------------------------------|
G|--------------4-4-4-4-4-4--6-6-6-6-6-6-----------------|
D|-2-2-2-2-2-2--4-4-4-4-4-4--6-6-6-6-6-6--4-2-4-2--1-2---|
A|-2-2-2-2-2-2--2-2-2-2-2-2--4-4-4-4-4-4-----------------|
E|-0-0-0-0-0-0-------------------------------------------|
C
horus                                   x4
e|--------------------------------------|
B|--------------------------------------|
G|--------------------------------------|
D|-4-4-4-4--7-7-7-7--2-2-2-2--9-9-9-9---|
A|-4-4-4-4--7-7-7-7--2-2-2-2--9-9-9-9---|
E|-2-2-2-2--5-5-5-5--0-0-0-0--7-7-7-7---|

Bridge                        x2
e|---------------------------|
B|---------------------------|
G|--------4~-----6~-----2~---|
D|-2~-----4~-----6~-----2~---|
A|-2~-----2~-----4~-----0~---|
E|-0~------------------------|

This goes on for a bit, listen when to stop
e|-----------------------------------|
B|-----------------------------------|
G|-9-9-9-9-9-9-9-9-9-9-9-9-9-9-9-9---|
D|-x-x-x-x-x-x-x-x-x-x-x-x-x-x-x-x---|
A|-7-7-7-7-7-7-7-7-7-7-7-7-7-7-7-7---|
E|-----------------------------------|

Intro                                                         x8
e|-0-0-0-4-0-0-5-0-0-7-5-4-5-0---0-0-0-2-0-0-4-0-0-5-4-2-0---|
B|-----------------------------------------------------------|
G|-----------------------------------------------------------|
D|-----------------------------------------------------------|
A|-----------------------------------------------------------|
E|-----------------------------------------------------------|

----------------------------------------------------------------------------
3. Dammit

Intro                                               x4
e|-------------------------------------------------|
B|-------------------------------------------------|
G|-------------------------------------------------|
D|-----0-0-2-------0-0-2-------0-0-2-------2-2-0---|
A|-3-3---------------------0-0---------------------|
E|-------------3-3---------------------1-1---------|

Verse (If you cant tell,the pm's are on all of the chords except the first ones)         
                                          x2
e|------------------------------------------------------|
B|------------------------------------------------------|
G|-5-5-5-5-5-5------------------------------------------|
D|-5-5-5-5-5-5--5-5-5-5-5-5--7-7-7-7-7-7--3-3-3-3-3-3---|
A|-3-3-3-3-3-3--5-5-5-5-5-5--7-7-7-7-7-7--3-3-3-3-3-3---|
E|--------------3-3-3-3-3-3--5-5-5-5-5-5--1-1-1-1-1-1---|
     .........    .........    .........    .........
                                                         x2
e|------------------------------------------------------|
B|------------------------------------------------------|
G|-5-5-5-5-5-5------------------------------------------|
D|-5-5-5-5-5-5--5-5-5-5-5-5--7-7-7-7-7-7--3-3-3-3-3-3---|
A|-3-3-3-3-3-3--5-5-5-5-5-5--7-7-7-7-7-7--3-3-3-3-3-3---|
E|--------------3-3-3-3-3-3--5-5-5-5-5-5--1-1-1-1-1-1---|

Intro                                               x2
e|-------------------------------------------------|
B|-------------------------------------------------|
G|-------------------------------------------------|
D|-----0-0-2-------0-0-2-------0-0-2-------2-2-0---|
A|-3-3---------------------0-0---------------------|
E|-------------3-3---------------------1-1---------|

Verse                                                    x2
e|------------------------------------------------------|
B|------------------------------------------------------|
G|-5-5-5-5-5-5------------------------------------------|
D|-5-5-5-5-5-5--5-5-5-5-5-5--7-7-7-7-7-7--3-3-3-3-3-3---|
A|-3-3-3-3-3-3--5-5-5-5-5-5--7-7-7-7-7-7--3-3-3-3-3-3---|
E|--------------3-3-3-3-3-3--5-5-5-5-5-5--1-1-1-1-1-1---|
     .........    .........    .........    .........
                                                         x2
e|------------------------------------------------------|
B|------------------------------------------------------|
G|-5-5-5-5-5-5------------------------------------------|
D|-5-5-5-5-5-5--5-5-5-5-5-5--7-7-7-7-7-7--3-3-3-3-3-3---|
A|-3-3-3-3-3-3--5-5-5-5-5-5--7-7-7-7-7-7--3-3-3-3-3-3---|
E|--------------3-3-3-3-3-3--5-5-5-5-5-5--1-1-1-1-1-1---|

Chorus               x2
e|------------------|
B|------------------|
G|-5~---------------|
D|-5~--5~--7~--3~---|
A|-3~--5~--7~--3~---|
E|-----3~--5~--1~---|

Intro                                               x2
e|-------------------------------------------------|
B|-------------------------------------------------|
G|-------------------------------------------------|
D|-----0-0-2-------0-0-2-------0-0-2-------2-2-0---|
A|-3-3---------------------0-0---------------------|
E|-------------3-3---------------------1-1---------|

Verse                                                    x2
e|------------------------------------------------------|
B|------------------------------------------------------|
G|-5-5-5-5-5-5------------------------------------------|
D|-5-5-5-5-5-5--5-5-5-5-5-5--7-7-7-7-7-7--3-3-3-3-3-3---|
A|-3-3-3-3-3-3--5-5-5-5-5-5--7-7-7-7-7-7--3-3-3-3-3-3---|
E|--------------3-3-3-3-3-3--5-5-5-5-5-5--1-1-1-1-1-1---|
     .........    .........    .........    .........
                                                         x2
e|------------------------------------------------------|
B|------------------------------------------------------|
G|-5-5-5-5-5-5------------------------------------------|
D|-5-5-5-5-5-5--5-5-5-5-5-5--7-7-7-7-7-7--3-3-3-3-3-3---|
A|-3-3-3-3-3-3--5-5-5-5-5-5--7-7-7-7-7-7--3-3-3-3-3-3---|
E|--------------3-3-3-3-3-3--5-5-5-5-5-5--1-1-1-1-1-1---|

Chorus               x2
e|------------------|
B|------------------|
G|-5~---------------|
D|-5~--5~--7~--3~---|
A|-3~--5~--7~--3~---|
E|-----3~--5~--1~---|


Bridge
e|-------------------------------|
B|-------------------------------|
G|-------------------------------|
D|-2----0-2----2-----0-2---0-2---|
A|---3------3----3-------3-----3-|
E|-----3-----------3-------------|


Intro                                               x4
e|-------------------------------------------------|
B|-------------------------------------------------|
G|-------------------------------------------------|
D|-----0-0-2-------0-0-2-------0-0-2-------2-2-0---|
A|-3-3---------------------0-0---------------------|
E|-------------3-3---------------------1-1---------|

End on c
e|---|
B|---|
G|-5-|
D|-5-|
A|-3-|
E|---|

----------------------------------------------------------------------------
4.Josie

Intro
e|---------------------------|
B|---------------------------|
G|-4---4---4---4---4---4---4-|
D|-x---x---x---x---x---x---x-|
A|-2---2---2---2---2---2---2-|
E|---------------------------|

Verse
e|---------------------------------------------------------|
B|---------------------------------------------------------|
G|-44444444------------------------------------------------|
D|-44444444-44444444-2222222222222222----------------------|
A|-22222222-44444444-2222222222222222----------------------|
E|----------22222222-0000000000000000----------------------| Play all x4

e|----------------------------------------|
B|----------------------------------------|
G|-44444444-66666666-99999999999999999----|
D|-44444444-66666666-99999999999999999----|
A|-22222222-44444444-77777777777777777----|
E|----------------------------------------|

Chorus, part 1: And when i feel like..........
e|---------------------------------------------------------|
B|---------------------------------------------------------|
G|-------------------4444444444444444----------------------|
D|-44444444-22222222-4444444444444444----------------------|
A|-44444444-22222222-2222222222222222----------------------|
E|-22222222-00000000---------------------------------------|

Chorus,part 2:i show up at 3 a.m ..........
e|---------------------------------------------------------|
B|---------------------------------------------------------|
G|----------66666666---------------------------------------|
D|-44444444-66666666-2222222222222222----------------------|
A|-44444444-44444444-2222222222222222----------------------|
E|-22222222----------0000000000000000----------------------|

Chorus 2 i know that everything.............
e|---------------------------------------------------------|x2
B|---------------------------------------------------------|
G|44444444-------------------------------------------------|
D|44444444-44444444-22222222-6666-4444---------------------|
A|22222222-44444444-22222222-6666-4444---------------------|
E|---------22222222-00000000-4444-2222---------------------|


Verse
e|---------------------------------------------------------|
B|---------------------------------------------------------|
G|-44444444------------------------------------------------|
D|-44444444-44444444-2222222222222222----------------------|
A|-22222222-44444444-2222222222222222----------------------|
E|----------22222222-0000000000000000----------------------| Play all x4

e|----------------------------------------|
B|----------------------------------------|
G|-44444444-66666666-99999999999999999----|
D|-44444444-66666666-99999999999999999----|
A|-22222222-44444444-77777777777777777----|
E|----------------------------------------|

Chorus, part 1: And when i feel like..........
e|---------------------------------------------------------|
B|---------------------------------------------------------|
G|-------------------4444444444444444----------------------|
D|-44444444-22222222-4444444444444444----------------------|
A|-44444444-22222222-2222222222222222----------------------|
E|-22222222-00000000---------------------------------------|

Chorus,part 2:i show up at 3 a.m ..........
e|---------------------------------------------------------|
B|---------------------------------------------------------|
G|----------66666666---------------------------------------|
D|-44444444-66666666-2222222222222222----------------------|
A|-44444444-44444444-2222222222222222----------------------|
E|-22222222----------0000000000000000----------------------|

Chorus 2 i know that everything.............
e|---------------------------------------------------------|x2
B|---------------------------------------------------------|
G|44444444-------------------------------------------------|
D|44444444-44444444-22222222-6666-4444---------------------|
A|22222222-44444444-22222222-6666-4444---------------------|
E|---------22222222-00000000-4444-2222---------------------|

e|---------------------------------------|
B|---------------------------------------|
G|-4---4---4---4---4---4---4---4---4---4-|
D|-x---x---x---x---x---x---x---x---x---x-|
A|-2---2---2---2---2---2---2---2---2---2-|
E|---------------------------------------|

i know that everything.............
e|---------------------------------------------------------|x4
B|---------------------------------------------------------|
G|44444444-------------------------------------------------|
D|44444444-44444444-22222222-6666-4444---------------------|
A|22222222-44444444-22222222-6666-4444---------------------|
E|---------22222222-00000000-4444-2222---------------------|

----------------------------------------------------------------------------
5.What's My Age Again?

Intro/Verse 1
(The notes in brackets eg. (9) and so on, are the bass notes, but can be played on 
if you're on your own, the note above is what tom plays all way through the below bit)
                                                                x8
e|--------------------------------------------------------------|
B|-------11-------------11--------------11----------------11----|
G|----11----11------11------11-------11----11---------11-----11-|
D|--9------------9---------------9----------------9-------------|
A|--------------(9)---------------------------------------------|
E|------------------------------(9)--------------(11)-----------|

Plays this x4 jsut before chorus
e|-------------|
B|-------11----|
G|----11----11-|
D|--9----------|
A|-------------|
E|-------------|

Chorus
                        x4
e|----------------------|
B|----------------------|
G|-----6-6---8-8----4-4-|
D|-4---6-6---8-8----4-4-|
A|-4---4-4---6-6----2-2-|
E|-2--------------------|

then ...                                                       x1
e|--------------------------------------------------------------|
B|-------11-------------11--------------11----------------11----|
G|----11----11------11------11-------11----11---------11-----11-|
D|--9------------9---------------9----------------9-------------|
A|--------------(9)---------------------------------------------|
E|------------------------------(9)--------------(11)-----------|

Verse 2                               x4
E|-------------------------------------|
B|-------------------------------------|
G|-------------------------------------|
D|-4-4-4-4-----------6-6-6-6---8-8-8-8-|
A|-2-2-2-2-4-4-4-4---4-4-4-4---6-6-6-6-|
E|---------2-2-2-2---------------------|
pm....................................

Solo type thing...
e|---------------------------------------------------------------------|
B|-11-----11---------11-----11-----------------------------------------|
G|----11-----11---------11-----11--------------------------------------|
D|----------------9----------------9---------8h9---------8h9-------8h9-|
A|-------------------------------------9-9-9------9-9-9------9-9-9-----|
E|---------------------------------------------------------------------|

e|-----------|
B|-----------|
G|-----------|
D|-------8h9-|
A|-9-9-9-----|
E|-----------|
                                                  x5 (i think)
E|-----------| ----------------------------------|
B|--------7--| ---------------7---------------7--|
G|-----------| ----------------------------------|
D|----8------| ----8-----8-----------8----8------|
A|-9---------| -9-----9-----------9-----9--------|
E|-----------| ----------------------------------|

Chorus                   x12(last 8 played with intro under)
e|----------------------|
B|----------------------|
G|-----6-6---8-8----4-4-|
D|-4---6-6---8-8----4-4-|
A|-4---4-4---6-6----2-2-|
E|-2--------------------|

----------------------------------------------------------------------------
6.All The Small Things

Intro
E|-------|
B|-------|
G|-------|
D|--5-3--|
A|--5-3--|
E|--3-1--|

Intro: Part 2                                                        x2
e|------------------------------------------------------------------|
B|------------------------------------------------------------------|
G|--5-5-5-5-5-5-5-5--5-5-5-5-5-5-5-5--------------------------------|
D|--5-5-5-5-5-5-5-5--3-3-3-3-3-3-3-3-5-5-5-5-5-5-5-5---------3-3-3--|
A|--3-3-3-3-3-3-3-3------------------x-x-x-x-x-x-x-x-0-0-0-0-3-3-3--|
E|-----------------------------------3-3-3-3-3-3-3-3---------1-1-1--|
                                                   pm........

verse                                                                  x4
e|--------------------------------------------------------------------|
B|--------------------------------------------------------------------|
G|--------------------------------------------------------------------|
D|--5-5-5-5-5-5-5-5---------------------------------------------------|
A|--3-3-3-3-3-3-3-3-5-5-5-5-5-5-5-5--3-3-3-3-3-3-3-3--5-5-5-5-5-5-5-5-|
E|------------------3-3-3-3-3-3-3-3--1-1-1-1-1-1-1-1--3-3-3-3-3-3-3-3-|
pm....................................................................

Pre Chorus (Let Ring)
e|---------------|
B|---------------|
G|--5------------|
D|--5------------|
A|--3------------|
E|---------------|

Chorus                                                                x2
e|-------------------------------------------------------------------|
B|-------------------------------------------------------------------|
G|--5-5-5-5-5-5-5-5-5-5-5-5-5-5-5-5----------------------------------|
D|--5-5-5-5-5-5-5-5-5-5-5-5-5-5-5-5-5-5-5-5-5-5-5-5--3-3-3-3-3-3-3-3-|
A|--3-3-3-3-3-3-3-3-3-3-3-3-3-3-3-3-x-x-x-x-x-x-x-x--3-3-3-3-3-3-3-3-|
E|----------------------------------3-3-3-3-3-3-3-3--1-1-1-1-1-1-1-1-|

Post Chorus                                                           x2
e|--------------------------------------------------------------------|
B|--------------------------------------------------------------------|
G|-5-5-5-5-5-5-5-5--10-10-10--9-9-9--7-7-7-7-7-7-7-7------------------|
D|-5-5-5-5-5-5-5-5--10-10-10—-9-9-9--x-x-x-x-x-x-x-x--7-7-7-7--3-3-3--|
A|-3-3-3-3-3-3-3-3--8--8--8---7-7-7--5-5-5-5-5-5-5-5--7-7-7-7--3-3-3--|
E|----------------------------------------------------5-5-5-5--1-1-1--|
                                                     pm.......
Verse                                                                  x4
e|--------------------------------------------------------------------|
B|--------------------------------------------------------------------|
G|--------------------------------------------------------------------|
D|--5-5-5-5-5-5-5-5---------------------------------------------------|
A|--3-3-3-3-3-3-3-3-5-5-5-5-5-5-5-5--3-3-3-3-3-3-3-3--5-5-5-5-5-5-5-5-|
E|------------------3-3-3-3-3-3-3-3--1-1-1-1-1-1-1-1--3-3-3-3-3-3-3-3-|
pm....................................................................

Pre Chorus (Let Ring)
e|---------------|
B|---------------|
G|--5------------|
D|--5------------|
A|--3------------|
E|---------------|

Chorus                                                               x2
e|-------------------------------------------------------------------|
B|-------------------------------------------------------------------|
G|--5-5-5-5-5-5-5-5-5-5-5-5-5-5-5-5----------------------------------|
D|--5-5-5-5-5-5-5-5-5-5-5-5-5-5-5-5-5-5-5-5-5-5-5-5--3-3-3-3-3-3-3-3-|
A|--3-3-3-3-3-3-3-3-3-3-3-3-3-3-3-3-x-x-x-x-x-x-x-x--3-3-3-3-3-3-3-3-|
E|----------------------------------3-3-3-3-3-3-3-3--1-1-1-1-1-1-1-1-|

Interlude (Let Ring)
E|---------|
B|---------|
G|--5------|
D|--x------|
A|--3------|
E|---------|
                              x4
E|-----------------------------|
B|-----------------------------|
G|--5—-5--5--5--4--4--7--7-----|
D|----5--5--5--5--5--5--5--5---|
A|-----------------------------|
E|-----------------------------|
                                  pm.............................

Chorus                                                               x2
e|-------------------------------------------------------------------|
B|-------------------------------------------------------------------|
G|--5-5-5-5-5-5-5-5-5-5-5-5-5-5-5-5----------------------------------|
D|--5-5-5-5-5-5-5-5-5-5-5-5-5-5-5-5-5-5-5-5-5-5-5-5--3-3-3-3-3-3-3-3-|
A|--3-3-3-3-3-3-3-3-3-3-3-3-3-3-3-3-x-x-x-x-x-x-x-x--3-3-3-3-3-3-3-3-|
E|----------------------------------3-3-3-3-3-3-3-3--1-1-1-1-1-1-1-1-|

Outtro (The pm is more staggered on the second time round)
e|------------------------------------------------------------------------|
B|------------------------------------------------------------------------|
G|-5-5-5-5-5-5-5-5-5-5-5-5-5-5-5-5--------------------------------------5-|
D|-5-5-5-5-5-5-5-5-5-5-5-5-5-5-5-5--5-5-5-5-5-5-5-5—-5-55555555555555---5-|
A|-3-3-3-3-3-3-3-3-3-3-3-3-3-3-3-3--5-5-5-5-5-5-5-5—-555555555555555----3-|
E|----------------------------------3-3-3-3-3-3-3-3—-333333333333333------|

e|------------------------------------|x2
B|------------------------------------|
G|----------------------------------5-|
D|—-3-3-3-3-3-3-3-3-3-3-3-3-3-3-3---5-|
A|—-3-3-3-3-3-3-3-3-3-3-3-3-3-3-3---3-|
E|--1-1-1-1-1-1-1-1-1-1-1-1-1-1-1-----|
pm  ...  ...  ...  ...


----------------------------------------------------------------------------
7.Adams Song

Intro                                                                   x2
e|-----------------------------------------------------------------------|
B|-----------------------------------------------------------------------|
G|-----------------------------------------------------------------------|
D|----2--------2--------2--------2--------2--------2--------2--------2---|
A|-0----3---0----3--------3--------3---------3--------3-------3--------3-|
E|-------------------3--------3--------1---------1-------0--------1------|

Verse                                                                  x4
e|----------------------------------------------------------------------|
B|----------------------------------------------------------------------|
G|-5-5-5-5-5-5-5-5-------------------2-2-2-2-2-2-2-2--------------------|
D|-5-5-5-5-5-5-5-5--3-3-3-3-3-3-3-3--2-2-2-2-2-2-2-2--3-3-3-3-3-3-3-3---|
A|-3-3-3-3-3-3-3-3--3-3-3-3-3-3-3-3--0-0-0-0-0-0-0-0--3-3-3-3-3-3-3-3---|
E|------------------1-1-1-1-1-1-1-1-------------------1-1-1-1-1-1-1-1---|
pm.......................................................................

Bridge                                                                    x2
e|-------------------------------------------------------------------------|
B|-------------------------------------------------------------------------|
G|---0--------0----------2---------2---------------------------------------|
D|------3---------3---0-----3---0----3-----2--------2--------2--------2----|
A|-3-------3----------------------------0----3---0-----3--------3--------3-|
E|--------------------------------------------------------3---------3------|

Pre Chorus (Play this clean, not too loud)                            x2
e|--------------------------------------------------------------------|
B|--------------------------------------------------------------------|
G|-5-5-5-5-5-5-5-5--7-7-7-7-7-7-7-7-----------------------------------|
D|-5-5-5-5-5-5-5-5--7-7-7-7-7-7-7-7--7-7-7-7-7-7-7-7--3-3-3-3-3-3-3-3-|
A|-3-3-3-3-3-3-3-3--5-5-5-5-5-5-5-5--7-7-7-7-7-7-7-7--3-3-3-3-3-3-3-3-|
E|-----------------------------------5-5-5-5-5-5-5-5--1-1-1-1-1-1-1-1-|

Chorus(Louder, Distorted)                                              x2
e|--------------------------------------------------------------------|
B|--------------------------------------------------------------------|
G|-5-5-5-5-5-5-5-5--7-7-7-7-7-7-7-7-----------------------------------|
D|-5-5-5-5-5-5-5-5--7-7-7-7-7-7-7-7--7-7-7-7-7-7-7-7--3-3-3-3-3-3-3-3-|
A|-3-3-3-3-3-3-3-3--5-5-5-5-5-5-5-5--7-7-7-7-7-7-7-7--3-3-3-3-3-3-3-3-|
E|-----------------------------------5-5-5-5-5-5-5-5--1-1-1-1-1-1-1-1-|

Intro                                                                   x2
e|-----------------------------------------------------------------------|
B|-----------------------------------------------------------------------|
G|-----------------------------------------------------------------------|
D|----2--------2--------2--------2--------2--------2--------2--------2---|
A|-0----3---0----3--------3--------3---------3--------3-------3--------3-|
E|-------------------3--------3--------1---------1-------0--------1------|

Verse                                                                  x4
e|----------------------------------------------------------------------|
B|----------------------------------------------------------------------|
G|-5-5-5-5-5-5-5-5-------------------2-2-2-2-2-2-2-2--------------------|
D|-5-5-5-5-5-5-5-5--3-3-3-3-3-3-3-3--2-2-2-2-2-2-2-2--3-3-3-3-3-3-3-3---|
A|-3-3-3-3-3-3-3-3--3-3-3-3-3-3-3-3--0-0-0-0-0-0-0-0--3-3-3-3-3-3-3-3---|
E|------------------1-1-1-1-1-1-1-1-------------------1-1-1-1-1-1-1-1---|
pm......................................................................

Bridge                                                                    x2
e|-------------------------------------------------------------------------|
B|-------------------------------------------------------------------------|
G|---0-------0----------2---------2----------------------------------------|
D|------3--------3---0-----3---0----3-----2--------2--------2--------2-----|
A|-3-------3----------------------------0----3---0-----3--------3--------3-|
E|--------------------------------------------------------3---------3------|

Pre Chorus (Play this clean, not too loud)                            x2
e|--------------------------------------------------------------------|
B|--------------------------------------------------------------------|
G|-5-5-5-5-5-5-5-5--7-7-7-7-7-7-7-7-----------------------------------|
D|-5-5-5-5-5-5-5-5--7-7-7-7-7-7-7-7--7-7-7-7-7-7-7-7--3-3-3-3-3-3-3-3-|
A|-3-3-3-3-3-3-3-3--5-5-5-5-5-5-5-5--7-7-7-7-7-7-7-7--3-3-3-3-3-3-3-3-|
E|-----------------------------------5-5-5-5-5-5-5-5--1-1-1-1-1-1-1-1-|

Chorus(Louder, Distorted)                                              x2
e|--------------------------------------------------------------------|
B|--------------------------------------------------------------------|
G|-5-5-5-5-5-5-5-5--7-7-7-7-7-7-7-7-----------------------------------|
D|-5-5-5-5-5-5-5-5--7-7-7-7-7-7-7-7--7-7-7-7-7-7-7-7--3-3-3-3-3-3-3-3-|
A|-3-3-3-3-3-3-3-3--5-5-5-5-5-5-5-5--7-7-7-7-7-7-7-7--3-3-3-3-3-3-3-3-|
E|-----------------------------------5-5-5-5-5-5-5-5--1-1-1-1-1-1-1-1-|

This bit is played on piano, but here it is for guitar :
e|-0--------0-------0------8-8---10----8--10----13-13-13--12-12-12-10-|
B|---1----1----1------------------------------------------------------|
G|-----0----------0---------------------------------------------------|
D|--------------------------------------------------------------------|
A|--------------------------------------------------------------------|
E|--------------------------------------------------------------------|

e|----8--10------------8---10---8----12-12-12--13-13-13---15-|
B|-8---------6-6-6-6-----------------------------------------|
G|-----------------------------------------------------------|
D|-----------------------------------------------------------|
A|-----------------------------------------------------------|
E|-----------------------------------------------------------|

Guitar plays this during and after the piano:
e|---------------------------------|
B|---------------------------------|
G|----5------5---5-----5---5-5-5-5-|
D|--------5----5----5------5-5-5-5-|
A|-3-----------------------3-3-3-3-|
E|---------------------------------|

Chorus                                                             x4
e|-----------------------------------------------------------------------|
B|-----------------------------------------------------------------------|
G|-5-5-5-5-5-5-5-5--7-7-7-7-7-7-7-7------------------------------------5-|
D|-5-5-5-5-5-5-5-5--7-7-7-7-7-7-7-7--7-7-7-7-7-7-7-7--3-3-3-3-3-3-3-3--5-|
A|-3-3-3-3-3-3-3-3--5-5-5-5-5-5-5-5--7-7-7-7-7-7-7-7--3-3-3-3-3-3-3-3--3-|
E|-----------------------------------5-5-5-5-5-5-5-5--1-1-1-1-1-1-1-1----|

----------------------------------------------------------------------------
8.Man Overboard

The Beggining Part is Bass

Guitar Intro (comes in at 00.10)                                     x4
e|------------------------------------------------------------------|
B|------------------------------------------------------------------|
G|---------------------------------5-5-5-5-5-5-5-5-5-5-5-5-5-5-5-5--|
D|-5-5-5-5-5-5-5-5-7-7-7-7-7-7-7-7-5-5-5-5-5-5-5-5-5-5-5-5-5-5-5-5--|
A|-5-5-5-5-5-5-5-5-7-7-7-7-7-7-7-7-3-3-3-3-3-3-3-3-3-3-3-3-3-3-3-3--|
E|-3-3-3-3-3-3-3-3-5-5-5-5-5-5-5-5----------------------------------|

Then this...                                     x2
e|----------------------------------------------|
B|----------------------------------------------|
G|----------------------------------------------|
D|----------------------------------------------|
A|------2-3-2--0-2-3-2-0-----0-2-3-2--0-2-3-2-0-|
E|-3--3-------------------0---------------------|

And this ...           x4
e|--------------------|
B|--------------------|
G|--------------------|
D|-5-5-----0-0-0h2p0--|
A|-----2h3----------3-|
E|--------------------|

Verse                                                                    x2
e|-----------------------------------------------------------------------|
B|-----------------------------------------------------------------------|
G|-----------------------------------------------------5-5-5-5-5-5-5-5---|
D|--5-5-5-5-5-5-5-5-5-5-5-5-5-5-5-5--2-2-2-2-2-2-2-2---5-5-5-5-5-5-5-5---|
A|--5-5-5-5-5-5-5-5-5-5-5-5-5-5-5-5--2-2-2-2-2-2-2-2---3-3-3-3-3-3-3-3---|
E|--3-3-3-3-3-3-3-3-3-3-3-3-3-3-3-3--0-0-0-0-0-0-0-0---------------------|
pm.......................................................................

Chorus:
e|------------------------------------------------------|
B|------------------------------------------------------|
G|--------------------7-7-7-7-7-------------------------|
D|--5-5-5-5-5---------7-7-7-7-7-------------------------|
A|--5-5-5-5-5---------5-5-5-5-5-------------------------|
E|--3-3-3-3-3-------------------------------------------|
   You can only lean, on me for so long

e|------------------------------------------------------|
B|------------------------------------------------------|
G|-----------------------5-5-5-5-5----------------------|
D|--2-2-2-2-2------------5-5-5-5-5----------------------|
A|--2-2-2-2-2------------3-3-3-3-3----------------------|
E|--0-0-0-0-0-------------------------------------------|
   Bring the ship about, to watch a friend drown

e|------------------------------------------------------|
B|------------------------------------------------------|
G|-----------------------7-7-7-7-7----------------------|
D|--5----------5---------7-7-7-7-7----------------------|
A|--5----------5---------5-5-5-5-5----------------------|
E|--3----------3----------------------------------------|
   Sit out on the ledge, begged you to come down

e|------------------------------------------------------|
B|------------------------------------------------------|
G|--------------------5-5-5-5-5-------------------------|
D|--2-----------2-----5-5-5-5-5-------------------------|
A|--2-----------2-----3-3-3-3-3-------------------------|
E|--0-----------0---------------------------------------|
   You can only lean, on me for so long

Pre Verse                                        x2
e|----------------------------------------------|
B|----------------------------------------------|
G|----------------------------------------------|
D|----------------------------------------------|
A|------2-3-2--0-2-3-2-0-----0-2-3-2--0-2-3-2-0-|
E|-3--3-------------------0---------------------|

Verse (I'm not too sure where the pms come in, but i think you play every third chord 
the pm)                                   x2
e|-----------------------------------------------------------|
B|-----------------------------------------------------------|
G|-------------------------------------------5-5-5-5-5-5-5---|
D|--5-5-5-5-5-5-5-5-5-5-5-5---2-2-2-2-2-2----5-5-5-5-5-5-5---|
A|--5-5-5-5-5-5-5-5-5-5-5-5---2-2-2-2-2-2----3-3-3-3-3-3-3---|
E|--3-3-3-3-3-3-3-3-3-3-3-3---0-0-0-0-0-0--------------------|
pm  . .   . .   . .   . .     . .   . .      . .   . .

Chorus:
e|------------------------------------------------------|
B|------------------------------------------------------|
G|--------------------7-7-7-7-7-------------------------|
D|--5-5-5-5-5---------7-7-7-7-7-------------------------|
A|--5-5-5-5-5---------5-5-5-5-5-------------------------|
E|--3-3-3-3-3-------------------------------------------|
   You can only lean, on me for so long

e|------------------------------------------------------|
B|------------------------------------------------------|
G|-----------------------5-5-5-5-5----------------------|
D|--2-2-2-2-2------------5-5-5-5-5----------------------|
A|--2-2-2-2-2------------3-3-3-3-3----------------------|
E|--0-0-0-0-0-------------------------------------------|
   Bring the ship about, to watch a friend drown

e|------------------------------------------------------|
B|------------------------------------------------------|
G|-----------------------7-7-7-7-7----------------------|
D|--5----------5---------7-7-7-7-7----------------------|
A|--5----------5---------5-5-5-5-5----------------------|
E|--3----------3----------------------------------------|
   Sit out on the ledge, begged you to come down

e|------------------------------------------------------|
B|------------------------------------------------------|
G|--------------------5-5-5-5-5-------------------------|
D|--2-----------2-----5-5-5-5-5-------------------------|
A|--2-----------2-----3-3-3-3-3-------------------------|
E|--0-----------0---------------------------------------|
   You can only lean, on me for so long

Bridge                                   x4
e|--------------------------------------|
B|--------------------------------------|
G|--------------------5-----------------|
D|-5---/---7----------5-----------------|
A|-5---/---7----------3-----------------|
E|-3---/---5----------------------------|
   So sorry, its over...
   There's so much more that I wanted,
   and there's so much more that I needed,
   and time keeps movin' on and on and on,
   Soon we'll all be gone

e|---------------------------------------|
B|---------------------------------------|
G|--------------------5----7-------------|
D|-5---/---7----------5----7-------------|
A|-5---/---7----------3----5-------------|
E|-3---/---5-----------------------------|
Play this where tom sings 'time keeps movin' on and on and on', play final chord on the last 'on'
                                                x2
e|----------------------------------------------|
B|----------------------------------------------|
G|----------------------------------------------|
D|----------------------------------------------|
A|------2-3-2--0-2-3-2-0-----0-2-3-2--0-2-3-2-0-|
E|-3--3-------------------0---------------------|

                            x4
e|------------------------|
B|------------------------|
G|------------------------|
D|-5-5-----0-0-0-0h2p0----|
A|-----2h3-------------3--|
E|------------------------|

Outro:
e|--------------------------------------------------|
B|--------------------------------------------------|
G|-------------------5-5-5-5-5-5-5-5----------------|
D|--5-5-5-5-5-5-5-5--5-5-5-5-5-5-5-5----------------|
A|--5-5-5-5-5-5-5-5--3-3-3-3-3-3-3-3----------------|
E|--3-3-3-3-3-3-3-3---------------------------------|
   Man on a mission  Can't say I miss him around

e|---------------------------------------------------|
B|---------------------------------------------------|
G|----------------------5-5-5-5-5-5-5-5--------------|
D|--5-5-5-5-7-7-7-7-----5-5-5-5-5-5-5-5--------------|
A|--5-5-5-5-7-7-7-7-----3-3-3-3-3-3-3-3--------------|
E|--3-3-3-3-5-5-5-5----------------------------------|
   Insider information  Hand in your resignation

e|-------------------------------------------------------|
B|-------------------------------------------------------|
G|------------------------5-5-5-5-5-5-5-5----------------|
D|--5-5-5-5-5-5-5-5-------5-5-5-5-5-5-5-5----------------|
A|--5-5-5-5-5-5-5-5-------3-3-3-3-3-3-3-3----------------|
E|--3-3-3-3-3-3-3-3--------------------------------------|
   Loss of a good friend  Best of intentions I've found

e|-----------------------------------------------------------|
B|-----------------------------------------------------------|
G|--------------------------------5-5-5-5---7-7-7-7----------|
D|--5-5-5-5-7-7-7-7---------------5-5-5-5---7-7-7-7------5---|
A|--5-5-5-5-7-7-7-7---------------3-3-3-3---5-5-5-5------5---|
E|--3-3-3-3-5-5-5-5--------------------------------------3---|
  Tight lipped procrastination  Yeah later, see you around

----------------------------------------------------------------------------
9.The Rock Show
                                                                            Intro paly 
twice and on the second time round put the chords on the end, then onto verse             
                x2
e|-------------------------------------------------|-------------------|
B|-------------------------------------------------|-------------------|
G|-------------------------------------------------|-------------------|
D|-----2----0-----------------2---0~~--------------|-7-7-7-7-7-7-7-7-7-|
A|-0------------4-/-6/-4---0------------4-/-7/-4---|-7-7-7-7-7-7-7-7-7-|
E|-------------------------------------------------|-5-5-5-5-5-5-5-5-5-|
                                                     pm.................
Verse          x2
e|-----------|
B|-----------|
G|-----7---9-|
D|-7---7---9-|
A|-7---5---7-|
E|-5---------|

Bridge                                               x2
e|-------------------------------------------------|
B|-------------------------------------------------|
G|-------------------------------------------------|
D|-----2----0-----------------2---0~~--------------|
A|-0------------4-/-6/-4---0------------4-/-7/-4---|
E|-------------------------------------------------|

Then its verse but its only bass.

Chorus             x3
e|---------------|
B|---------------|
G|-6--7--9-----7-|
D|-6--7--9--4--7-|
A|-4--5--7--4--5-|
E|----------2----|

Then                            x2
e|------------------------------| |-------------------|
B|------------------------------| |-------------------|
G|-9-9-9-9-9-9-9--7-7-7-7-7-7-7-| |-9-9-9-9-9-9--7-6--|
D|-9-9-9-9-9-9-9--7-7-7-7-7-7-7-| |-9-9-9-9-9-9--7-6--|
A|-7-7-7-7-7-7-7--5-5-5-5-5-5-5-| |-7-7-7-7-7-7--5-4--|
E|------------------------------| |-------------------|
   pm............................    pm........

Bridge                                               x2
e|-------------------------------------------------|
B|-------------------------------------------------|
G|-------------------------------------------------|
D|-----2----0-----------------2---0~~--------------|
A|-0------------4-/-6/-4---0------------4-/-7/-4---|
E|-------------------------------------------------|

I think that the chords are palm muted though this verse, but when the chords would 
come up, play them with out the p.m
Verse          x2
e|-----------|
B|-----------|
G|-----7---9-|
D|-7---7---9-|
A|-7---5---7-|
E|-5---------|

Chorus             x3
e|---------------|
B|---------------|
G|-6--7--9-----7-|
D|-6--7--9--4--7-|
A|-4--5--7--4--5-|
E|----------2----|

Then                            x2
e|------------------------------| |-------------------|
B|------------------------------| |-------------------|
G|-9-9-9-9-9-9-9--7-7-7-7-7-7-7-| |-9-9-9-9-9-9--7-6--|
D|-9-9-9-9-9-9-9--7-7-7-7-7-7-7-| |-9-9-9-9-9-9--7-6--|
A|-7-7-7-7-7-7-7--5-5-5-5-5-5-5-| |-7-7-7-7-7-7--5-4--|
E|------------------------------| |-------------------|
   pm............................    pm........

Interlude                                   x2
e|------------------------------------------|
B|-2-----2-----2-----3----2----2---2---3----|
G|----2------2----2-----2----2---2---2----2-|
D|------------------------------------------|
A|------------------------------------------|
E|------------------------------------------|

e|------------------------------------------------------------------|
B|------------------------------------------------------------------|
G|----------------------------------7-7-7-7-7-7-7-7-7-7-7-7-7-7-7-7-|
D|-4-4-4-4-4-4-4-4-4-4-4-4-4-4-4-4--7-7-7-7-7-7-7-7-7-7-7-7-7-7-7-7-|
A|-4-4-4-4-4-4-4-4-4-4-4-4-4-4-4-4--5-5-5-5-5-5-5-5-5-5-5-5-5-5-5-5-|
E|-2-2-2-2-2-2-2-2-2-2-2-2-2-2-2-2----------------------------------|

e|-------------------------------------------------------------------|
B|-------------------------------------------------------------------|
G|----------------------------------9-9-9-9-9-9-9-9--7-7-7-7-7-7-7-7-|
D|-7-7-7-7-7-7-7-7-7-7-7-7-7-7-7-7--9-9-9-9-9-9-9-9--7-7-7-7-7-7-7-7-|
A|-7-7-7-7-7-7-7-7-7-7-7-7-7-7-7-7--7-7-7-7-7-7-7-7--5-5-5-5-5-5-5-5-|
E|-5-5-5-5-5-5-5-5-5-5-5-5-5-5-5-5-----------------------------------|

Chorus             x3
e|----------------|
B|----------------|
G|--6--7--9-----7-|
D|--6--7--9--4--7-|
A|--4--5--7--4--5-|
E|-----------2----|

Then                            x2
e|------------------------------| |-------------------|
B|------------------------------| |-------------------|
G|-9-9-9-9-9-9-9--7-7-7-7-7-7-7-| |-9-9-9-9-9-9--7-6--|
D|-9-9-9-9-9-9-9--7-7-7-7-7-7-7-| |-9-9-9-9-9-9--7-6--|
A|-7-7-7-7-7-7-7--5-5-5-5-5-5-5-| |-7-7-7-7-7-7--5-4--|
E|------------------------------| |-------------------|
   pm............................    pm........

Bridge
 (it fades out, its a little more that 8 bit its hard to hear)
e|-------------------------------------------------|  x8
B|-------------------------------------------------|
G|-------------------------------------------------|
D|-----2----0-----------------2---0~~--------------|
A|-0------------4-/-6/-4---0------------4-/-7/-4---|
E|-------------------------------------------------|

----------------------------------------------------------------------------
10.Firstdate

Intro                                                               x2
e|-0---------------------------------------------------------------|
B|--1-1-1-1-1-1-1-1--3-1-1-1-1-1-1-1--3-1-1-1-1-1-1-1-1--3-1-1-1-0-|
G|-----------------------------------------------------------------|
D|-----------------------------------------------------------------|
A|-----------------------------------------------------------------|
E|-----------------------------------------------------------------|

Let ring
e|---|
B|---|
G|-5-|
D|-x-|
A|-3-|
E|---|
                      (repeat as many times necessary)
e|--------------------|
B|--------------------|
G|--5-5-5-5-5-5-5-5-5-|
D|--------------------|
A|--------------------|
E|--------------------|
pm...................   If you listen i think about every third note the pm is relesed slightly

Chorus                                  x2
e|-------------------------------------|
B|-------------------------------------|
G|------------------2-2-2-2------------|
D|--5-5-5---5-5-5---2-2-2-2---3-3--5-5-|
A|--3-3-3---2-2-2---0-0-0-0---3-3--5-5-|
E|----------------------------1-1--3-3-|

(Forever and ever...)                                x2
e|--------------------------------------------------|
B|--------------------------------------------------|
G|-5-5-5-5-5-5--4-4-4-4-4-4--2-2-2-2-2-2------------|
D|-5-5-5-5-5-5--4-4-4-4-4-4--2-2-2-2-2-2--3-3--5-5--|
A|-3-3-3-3-3-3--2-2-2-2-2-2--0-0-0-0-0-0--3-3--5-5--|
E|----------------------------------------1-1--3-3--|

Intro                                                               x2
e|-0---------------------------------------------------------------|
B|--1-1-1-1-1-1-1-1--3-1-1-1-1-1-1-1--3-1-1-1-1-1-1-1-1--3-1-1-1-0-|
G|-----------------------------------------------------------------|
D|-----------------------------------------------------------------|
A|-----------------------------------------------------------------|
E|-----------------------------------------------------------------|

Let ring
e|---|
B|---|
G|-5-|
D|-x-|
A|-3-|
E|---|

                     (repeat as many times necessary)
e|--------------------|
B|--------------------|
G|--5-5-5-5-5-5-5-5-5-|
D|--------------------|
A|--------------------|
E|--------------------|
pm...................   If you listen i think about every third note the pm is relesed slightly

Chorus                                  x2
e|-------------------------------------|
B|-------------------------------------|
G|------------------2-2-2-2------------|
D|--5-5-5---5-5-5---2-2-2-2---3-3--5-5-|
A|--3-3-3---2-2-2---0-0-0-0---3-3--5-5-|
E|----------------------------1-1--3-3-|

(Forever and ever...)                                x2
e|--------------------------------------------------|
B|--------------------------------------------------|
G|-5-5-5-5-5-5--4-4-4-4-4-4--2-2-2-2-2-2------------|
D|-5-5-5-5-5-5--4-4-4-4-4-4--2-2-2-2-2-2--3-3--5-5--|
A|-3-3-3-3-3-3--2-2-2-2-2-2--0-0-0-0-0-0--3-3--5-5--|
E|----------------------------------------1-1--3-3--|

Interlude part 1                                              x2
e|------------------------------------------------------------|
B|------------------------------------------------------------|
G|-5-5-5-5-5-5-5----------------------------------------------|
D|-5-5-5-5-5-5-5--2-2-2-2-2-2-2--3-3-3-3-3-3-3--5-5-5-5-5-5-5-|
A|-3-3-3-3-3-3-3--2-2-2-2-2-2-2--3-3-3-3-3-3-3--5-5-5-5-5-5-5-|
E|----------------0-0-0-0-0-0-0--1-1-1-1-1-1-1--3-3-3-3-3-3-3-|

Interlude part 2                                                      x4
e|--------------------------------------------------------------------|
B|--------------------------------------------------------------------|
G|-5-5-5-5-5-5-5--9-9-9-9-9-\5-5--10-10-10-10-10-\5-5---7-7-7-7-7-7-7-|
D|-x-x-x-x-x-x-x--x-x-x-x-x--x-x---x-x--x--x---x--x-x---x-x-x-x-x-x-x-|
A|-3-3-3-3-3-3-3--7-7-7-7-7--\3-3--8-8--8--8---8--\3-3--5-5-5-5-5-5-5-|
E|--------------------------------------------------------------------|

Chorus                                  x2
e|-------------------------------------|
B|-------------------------------------|
G|------------------2-2-2-2------------|
D|--5-5-5---5-5-5---2-2-2-2---3-3--5-5-|
A|--3-3-3---2-2-2---0-0-0-0---3-3--5-5-|
E|----------------------------1-1--3-3-|


(Forever and ever...)                                x4
e|--------------------------------------------------|
B|--------------------------------------------------|
G|-5-5-5-5-5-5--4-4-4-4-4-4--2-2-2-2-2-2------------|
D|-5-5-5-5-5-5--4-4-4-4-4-4--2-2-2-2-2-2--3-3--5-5--|
A|-3-3-3-3-3-3--2-2-2-2-2-2--0-0-0-0-0-0--3-3--5-5--|
E|----------------------------------------1-1--3-3--|

(On the last two times of the above being played, this goes over the top)
Intro                                                               x2
e|-0---------------------------------------------------------------|
B|--1-1-1-1-1-1-1-1--3-1-1-1-1-1-1-1--3-1-1-1-1-1-1-1-1--3-1-1-1-0-|
G|-----------------------------------------------------------------|
D|-----------------------------------------------------------------|
A|-----------------------------------------------------------------|
E|-----------------------------------------------------------------|

----------------------------------------------------------------------------
11.Stay Together For The Kids


Intro                                                                  x2
e|-------------------------------------------------------------------|
B|-------------------------------------------------------------------|
G|-------------------------------------------------------------------|
D|---0---7---0-4-0----0---7---0-4-0----0---4---4-5-4----2--4-5-4-2-0-|
A|-5---5---5--------4---4---4--------2---2---2--------0--------------|
E|-------------------------------------------------------------------|

Verse                                                                   x2
e|---------------------------------------------------------------------|
B|---------------------------------------------------------------------|
G|------7-7-7-7------7-7-7-7------7-7-7-7------9------9------6------7--|
D|------7-7-7-7------7-7-7-7------7-7-7-7------7------7------7------7--|
A|--5-5-----------------------0-0----------0------0------0------0------|
E|---------------7-7---------------------------------------------------|

Chorus                                                               x4
e|------------------------------------------------------------------|
B|------------------------------------------------------------------|
G|------------------------------------------------------------------|
D|------------------------------------------------------------------|
A|-5-5-5-5-5-5-5-5-5-5-5-5-5-5-5-5--5-5-5-5-5-5-5-5-5-5-5-5-5-5-5-5-|
E|-3-3-3-3-3-3-3-3-3-3-3-3-3-3-3-3--2-2-2-2-2-2-2-2-2-2-2-2-2-2-0-2-|

Intro                                                                 x2
e|-------------------------------------------------------------------|
B|-------------------------------------------------------------------|
G|-------------------------------------------------------------------|
D|---0---7---0-4-0----0---7---0-4-0----0---4---4-5-4----2--4-5-4-2-0-|
A|-5---5---5--------4---4---4--------2---2---2--------0--------------|
E|-------------------------------------------------------------------|

Verse (Some slight variations, i think you olny play the root note once)                 
                                                 x2
e|---------------------------------------------------------------------|
B|---------------------------------------------------------------------|
G|------7-7-7-7------7-7-7-7------7-7-7-7------9------9------6------7--|
D|------7-7-7-7------7-7-7-7------7-7-7-7------7------7------7------7--|
A|--5-5-----------------------0-0----------0------0------0------0------|
E|---------------7-7---------------------------------------------------|

Chorus                                                               x4
e|------------------------------------------------------------------|
B|------------------------------------------------------------------|
G|------------------------------------------------------------------|
D|------------------------------------------------------------------|
A|-5-5-5-5-5-5-5-5-5-5-5-5-5-5-5-5--5-5-5-5-5-5-5-5-5-5-5-5-5-5-5-5-|
E|-3-3-3-3-3-3-3-3-3-3-3-3-3-3-3-3--2-2-2-2-2-2-2-2-2-2-2-2-2-2-0-2-|

Interlude (Piano)

Chorus(Around 12 times, it fades out in the end)                    x12
e|------------------------------------------------------------------|
B|------------------------------------------------------------------|
G|------------------------------------------------------------------|
D|------------------------------------------------------------------|
A|-5-5-5-5-5-5-5-5-5-5-5-5-5-5-5-5--5-5-5-5-5-5-5-5-5-5-5-5-5-5-5-5-|
E|-3-3-3-3-3-3-3-3-3-3-3-3-3-3-3-3--2-2-2-2-2-2-2-2-2-2-2-2-2-2-0-2-|

----------------------------------------------------------------------------
12.Feeling This

Drums start off...
Intro                              Repeat this through verse
e|----------------------------|---------------------------|
B|----------------------------|---------------------------|
G|----------------------------|11-9-9-9-9-9--9--9--13-11--|
D|----------------------------|-x-x-x-x-x-x--x--x--x--x---|
A|-9-7-7-7-7-7-11-9-7-7-7-7-7-|11-9-7-7-7-7--7--7--11-9---|
E|-----------0--------------0-|---------------0-----------|

Chorus
e---|
B---|
G---| Play where it sings
D-9-|  Fate and Place
A-7-|
E-0-|
FATE fell short this time smile fades in the summer PLACE your hand in mine and i'll leave when i wanna

Bridge
e-----------------------------------------------------------------------|
B-----------------------------------------------------------------------|
G-9-9-9-9-9-9-9-9-11-11-11-11-11-11-13-13-13-13-13-13-14-14-14-14-14-14-|
D-x-x-x-x-x-x-x-x-x--x--x--x--x--x--x--x--x--x--x--x--x--x--x--x--x--x--|
A-7-7-7-7-7-7-7-7-9--9--9--9--9--9--11-11-11-11-11-11-12-12-12-12-12-12-|
E-----------------------------------------------------------------------|

Then it goes on to the intro/verse again
Intro                              Repeat this through verse
e|----------------------------|---------------------------|
B|----------------------------|---------------------------|
G|----------------------------|11-9-9-9-9-9--9--9--13-11--|
D|----------------------------|-x-x-x-x-x-x--x--x--x--x---|
A|-9-7-7-7-7-7-11-9-7-7-7-7-7-|11-9-7-7-7-7--7--7--11-9---|
E|-----------0--------------0-|---------------0-----------|

Okay, then theres a bit where its only drums and singing but through the end of it it 
mutes this :                             x2
e|-------------------------------------------------------|
B|-------------------------------------------------------|
G|-------------------------------------------------------|
D|-9-9-9-9-9-9-9-9-9-9-9-9-11-11-11-11-11-11-7-7-7-7-7-7-|
A|-7-7-7-7-7-7-9-9-9-9-9-9-11-11-11-11-11-11-7-7-7-7-7-7-|
E|-0-0-0-0-0-0-7-7-7-7-7-7-9--9--9--9--9--9--5-5-5-5-5-5-|
pm........................................................

Then its the chorus again, but you play this, it fades out at the end                    
                                   x8
e|-------------------------------------------------------|
B|-------------------------------------------------------|
G|-------------------------------------------------------|
D|-9-9-9-9-9-9-9-9-9-9-9-9-11-11-11-11-11-11-7-7-7-7-7-7-|
A|-7-7-7-7-7-7-9-9-9-9-9-9-11-11-11-11-11-11-7-7-7-7-7-7-|
E|-0-0-0-0-0-0-7-7-7-7-7-7-9--9--9--9--9--9--5-5-5-5-5-5-|

----------------------------------------------------------------------------
13.I Miss You

Intro     x12
e|--------|
B|--------|
G|-4/88-8-|
D|-x/xx-x-|
A|-2/66-6-|
E|--------|

Verse      x12
e|--------|
B|--------|
G|-4/88-8-|
D|-x/xx-x-|
A|-2/66-6-|
E|--------|

Chorus                                                                 x2
e|---------------------------------------------------------------------|
B|---------------------------------------------------------------------|
G|-4-4-44-6-6-6-66-8-8-8-88-6-6-6-66-----------------4-4-4-44-4-4-4-44-|
D|-x-x-xx-x-x-x-xx-x-x-x-xx-x-x-x-xx-6-6-66-8-8-88-8-x-x-x-xx-x-x-x-xx-|
A|-2-2-22-4-4-4-44-6-6-6-66-4-4-4-44-x-x-xx-x-x-xx-x-2-2-2-22-2-2-2-22-|
E|-----------------------------------4-4-44-6-6-66-6-------------------|

Verse      x12
e|--------|
B|--------|
G|-4/88-8-|
D|-x/xx-x-|
A|-2/66-6-|
E|--------|

Chorus                                                                 x2
e|---------------------------------------------------------------------|
B|---------------------------------------------------------------------|
G|-4-4-44-6-6-6-66-8-8-8-88-6-6-6-66-----------------4-4-4-44-4-4-4-44-|
D|-x-x-xx-x-x-x-xx-x-x-x-xx-x-x-x-xx-6-6-66-8-8-88-8-x-x-x-xx-x-x-x-xx-|
A|-2-2-22-4-4-4-44-6-6-6-66-4-4-4-44-x-x-xx-x-x-xx-x-2-2-2-22-2-2-2-22-|
E|-----------------------------------4-4-44-6-6-66-6-------------------|

Verse
No Lyrics  x8
e|--------|
B|--------|
G|-4/88-8-|
D|-x/xx-x-|
A|-2/66-6-|
E|--------|

Chorus                                                                  x4
e|---------------------------------------------------------------------|
B|---------------------------------------------------------------------|
G|-4-4-44-6-6-6-66-8-8-8-88-6-6-6-66-----------------4-4-4-44-4-4-4-44-|
D|-x-x-xx-x-x-x-xx-x-x-x-xx-x-x-x-xx-6-6-66-8-8-88-8-x-x-x-xx-x-x-x-xx-|
A|-2-2-22-4-4-4-44-6-6-6-66-4-4-4-44-x-x-xx-x-x-xx-x-2-2-2-22-2-2-2-22-|
E|-----------------------------------4-4-44-6-6-66-6-------------------|

Then Its Piano On The Way Outro

----------------------------------------------------------------------------
14.Down

This is the best Blink song ever, in my opinion.

Intro (Watch out for the timing here)
e|----------------------|x8
B|----------------------|
G|----------------------|
D|-9-99-9-9-999-9-9-9-9-|
A|-x-xx-x-x-xxx-x-x-x-x-|
E|-7-77-7-7-777-7-7-7-7-|

Verse                       x4
e|---------------------------|---|
B|---------------------------|---| Play this after the fourth time
G|---------------------------|---|
D|-9999-9999-99-6666-8888-88-|---|
A|-xxxx-xxxx-xx-xxxx-xxxx-xx-|---|
E|-7777-7777-77-4444-6666-66-|-0-|

Chorus
e|-----------------------------------------------------------------|
B|-----------------------------------------------------------------|
G|-----------------------------------------------------------------|
D|-6-6-6-6-6-6--8-8-8-8-8-8--9-9-9-9-9-9--4-4-4-4-4-4--6-6-6-6-6-6-|
A|-6-6-6-6-6-6--8-8-8-8-8-8--9-9-9-9-9-9--4-4-4-4-4-4--6-6-6-6-6-6-|
E|-4-4-4-4-4-4--6-6-6-6-6-6--7-7-7-7-7-7--2-2-2-2-2-2--4-4-4-4-4-4-|...

e|-------------------|
B|-------------------|
G|-------------------|
D|-8-8-8-8-8-8--9~~~-|
A|-8-8-8-8-8-8--9~~~-|
E|-6-6-6-6-6-6--7~~~-|

Interlude (No Guitar)

Intro
e|----------------------|x2
B|----------------------|
G|----------------------|
D|-9-99-9-9-999-9-9-9-9-|
A|-x-xx-x-x-xxx-x-x-x-x-|
E|-7-77-7-7-777-7-7-7-7-|

Verse     x3
e|---------|--------|
B|---------|--------|
G|---------|--------|
D|-6-/8-/9-|-6-/8---|
A|-x-/x-/x-|-x-/x---|
E|-4-/6-/9-|-4-/6-0-|

Chorus
e|-----------------------------------------------------------------|
B|-----------------------------------------------------------------|
G|-----------------------------------------------------------------|
D|-6-6-6-6-6-6--8-8-8-8-8-8--9-9-9-9-9-9--4-4-4-4-4-4--6-6-6-6-6-6-|
A|-6-6-6-6-6-6--8-8-8-8-8-8--9-9-9-9-9-9--4-4-4-4-4-4--6-6-6-6-6-6-|
E|-4-4-4-4-4-4--6-6-6-6-6-6--7-7-7-7-7-7--2-2-2-2-2-2--4-4-4-4-4-4-|...

e|-------------------|
B|-------------------|
G|-------------------|
D|-8-8-8-8-8-8--9~~~-|
A|-8-8-8-8-8-8--9~~~-|
E|-6-6-6-6-6-6--7~~~-|

Interlude/Outro. Again no guitar in this but it lasts forever so here's the piano 
for guitar.

e|-----------------------| x24----|
B|-------12-------12--------------|(Straight after the last time paly a B on low E
G|----11----11--------11-|(E|-7---|
D|-9------------------------------|
A|--------------------------------|
E|--------------------------------|

----------------------------------------------------------------------------
15.Always

I've seen alot of people say that there are two guitars in this, ut i think its just 
normal, a guitar and bass, but i'll tab it out as if there were two guitars.

Intro (I think this could actually be bass)
Guitar 1                             x2
e|----------------------------------|
B|----------------------------------|
G|----------------------------------|
D|----------------------------------|
A|-22222222444444446666666622222222-|
E|----------------------------------|

Verse
Guitar 1                             x2
e|----------------------------------|
B|----------------------------------|
G|----------------------------------|
D|----------------------------------|
A|-2222222--------------------------|
E|--------0666666604444444444444444-|

Guitar 1                             x1
e|----------------------------------|
B|----------------------------------|
G|----------------------------------|
D|----------------------------------|
A|-2222222--------------------------|
E|--------0666666604444444444444444-|
                                       These kick in at the same time
Guitar 2                            x1
e|----------------------------------|
B|----------------------------------|
G|----------------------------------|
D|----------------------------------|
A|-22222222-------------------------|
E|---------666666604444444444444440-|
 pm................................

Guitar 1                             x2
e|----------------------------------|
B|----------------------------------|
G|----------------------------------|
D|----------------------------------|
A|-2222222--------------------------|
E|--------0666666604444444444444444-|

Guitar 2                             x2   These at the same time too
e|----------------------------------|
B|----------------------------------|
G|----------------------------------|
D|----------------------------------|
A|-22222222-------------------------|
E|---------666666604444444022222222-|
 pm................................

Pre-Chorus
Guitar 1
e|---------------------------------------|
B|-----4--4------4--4------4--4----------|
G|---4---4-----4---4-----4---4-----4---4-|
D|---------------------------------------|
A|-22--------44--------------------------| 2x
E|---------------------44--------00------|

Guitar 2(This plays right before the above riff)
e|-------|x2
B|-------|
G|--4~~~-|
D|--x~~~-|
A|--2~~~-|
E|--0~~~-|

Chorus                                  x2
e|-------------------------------------|
B|-------------------------------------|
G|-44444444/88888888-------------------|
D|-xxxxxxxx-xxxxxxxx-66666666----------|
A|-22222222/66666666-xxxxxxxx-77777777-|
E|-------------------44444444-00000000-|

Post-Chorus
Guitar 1
e|---------------------------------------|
B|-----4--4------4--4------4--4----------|
G|---4---4-----4---4-----4---4-----4---4-|
D|---------------------------------------|
A|-22--------44--------------------------| 2x
E|---------------------44--------00------|

Guitar 2(This plays right before the above riff)
e|-------|x2
B|-------|
G|--4~~~-|
D|--x~~~-|
A|--2~~~-|
E|--0~~~-|

Verse                   x4
e|---------------------|
B|---------------------|
G|---------------------|
D|---------------------|
A|-6---6-4---4-6-------|
E|---7-----6-----4-2-4-|

Pre-Chorus
Guitar 1                                  x4
e|---------------------------------------|
B|-----4--4------4--4------4--4----------|
G|---4---4-----4---4-----4---4-----4---4-|
D|---------------------------------------|
A|-22--------44--------------------------|
E|---------------------44--------00------|

Guitar 2(This plays right before the above riff)
e|-------|x4
B|-------|
G|--4~~~-|
D|--x~~~-|
A|--2~~~-|
E|--0~~~-|

Chorus                                  x4
e|-------------------------------------|
B|-------------------------------------|
G|-44444444/88888888-------------------|
D|-xxxxxxxx-xxxxxxxx-66666666----------|
A|-22222222/66666666-xxxxxxxx-77777777-|
E|-------------------44444444-00000000-|

Bridge About 3 times, just listen to the track
e|---------------------------------------------|
B|---------------------------------------------|
G|-8-8-8-8/9\8-8-8-8/9\8-8-8-8/9\8-8/9\8-8/9\8-|
D|-x-x-x-x---x-x-x-x---x-x-x-x-x-x-x-x-x-x-x-x-|
A|-6-6-6-6/7\6-6-6-6/7\6-6-6-6/7\6-6/7\6-6/7\6-|
E|---------------------------------------------|

And then this ...         x1
e|-----------------------|
B|-----------------------|
G|-8---------------------|
D|-x---------------------|
A|-6--\4-2-----2/4/6\4-2-|
E|-----------------------|

Interlude (Singing and Drums only)

Chorus                                  x4
e|-------------------------------------|
B|-------------------------------------|
G|-44444444/88888888-------------------|
D|-xxxxxxxx-xxxxxxxx-66666666----------|
A|-22222222/66666666-xxxxxxxx-77777777-|
E|-------------------44444444-00000000-|

Outro (With some weird keyboardy thing over top)
e|---------------------------------------|x4
B|-----4--4------4--4------4--4----------|
G|---4---4-----4---4-----4---4-----4---4-|
D|---------------------------------------|
A|-22--------44--------------------------|
E|---------------------44--------00------|

----------------------------------------------------------------------------
16.Not Now

Intro Part 1                        x4
e|---------------------------------|
B|---------------------------------|
G|-11-11-11-7-7-7777-77-9-11-7-7/9-|
D|-x--x--x--x-x-xxxx-xx-x-x--x-x-x-|
A|-9--9--9--5-5-5555-55-7-9--5-5/7-|
E|---------------------------------|
((Pickslides))
Intro Part 2                             x4
e|--------------------------------------|
B|--------------------------------------|
G|-----777------------------------------|
D|-999-777-7777777777-55555555-44444444-|
A|-999-555-7777777777-55555555-55555555-|
E|-777-----5555555555-33333333-22222222-|

First part of the verse is on keyboard (which palys the below anyway, basicly) but then 
kicks in on guitar:
e|-------------------------------------------------------------|
B|-------------------------------------------------------------|
G|-11-11-11-11-11-11-11-11-11-11-11-11-9-9-9-9-9-9-9-9-9-9-9-9-|
D|-x--x--x--x--x--x--x--x--x--x--x--x--x-x-x-x-x-x-x-x-x-x-x-x-|
A|-9--9--9--9--9--9--9--9--9--9--9--9--7-7-7-7-7-7-7-7-7-7-7-7-|
E|-------------------------------------------------------------|
pm    ...............................     .....................

e|-------------------------------------|
B|-------------------------------------|
G|-11-11-11-11-11-11-11-11-11-11-11-11-|
D|-x--x--x--x--x--x--x--x--x--x--x--x--|
A|-9--9--9--9--9--9--9--9--9--9--9--9--|
E|-------------------------------------|
pm    ................................

e|----------------------------------------|
B|----------------------------------------|
G|----12-12-12-12-12-12-12-12-12-12-12-12-|
D|----x--x--x--x--x--x--x--x--x--x--x--x--|
A|---10-10-10-10-10-10-10-10-10-10-10-10--|
E|----------------------------------------|
pm   .................................

Play all this twice

Chorus (Acoustic Guitar)               x1
e|------------------------------------|
B|------------------------------------|
G|-7-7-7-7--7-7-7-7--7-7-7-7--7-7-7-7-|
D|-7-7-7-7--7-7-7-7--7-7-7-7--7-7-7-7-|
A|-5-5-5-5--4-4-4-4--x-x-x-x--x-x-x-x-|
E|----------7-7-7-7--5-5-5-5----------|

Intro (Part 2)                           x2
e|--------------------------------------|
B|--------------------------------------|
G|-----777------------------------------|
D|-999-777-7777777777-55555555-44444444-|
A|-999-555-7777777777-55555555-55555555-|
E|-777-----5555555555-33333333-22222222-|

Verse (No Guitar, Just keyobard)

Chorus (Electric)               x2
e|------------------------------------|
B|------------------------------------|
G|-7-7-7-7--7-7-7-7--7-7-7-7--7-7-7-7-|
D|-7-7-7-7--7-7-7-7--7-7-7-7--7-7-7-7-|
A|-5-5-5-5--4-4-4-4--x-x-x-x--x-x-x-x-|
E|----------7-7-7-7--5-5-5-5----------|

Drums, then bass solo

Intro                               x4
e|---------------------------------|
B|---------------------------------|
G|-11-11-11-7-7-7777-77-9-11-7-7/9-|
D|-x--x--x--x-x-xxxx-xx-x-x--x-x-x-|
A|-9--9--9--5-5-5555-55-7-9--5-5/7-|
E|---------------------------------|

Chorus                                x4
e|------------------------------------|
B|------------------------------------|
G|-7-7-7-7--7-7-7-7--7-7-7-7--7-7-7-7-|
D|-7-7-7-7--7-7-7-7--7-7-7-7--7-7-7-7-|
A|-5-5-5-5--4-4-4-4--x-x-x-x--x-x-x-x-|
E|----------7-7-7-7--5-5-5-5----------|

Intro (part 2)                            x4
e|--------------------------------------|
B|--------------------------------------|
G|-----777------------------------------|
D|-999-777-7777777777-55555555-44444444-|
A|-999-555-7777777777-55555555-55555555-|
E|-777-----5555555555-33333333-22222222-|

Outro
e|-----------|
B|-----------|
G|-----7-----|
D|-9---7---7-|
A|-9---5---7-|
E|-7-------5-|

----------------------------------------------------------------------------
17.I Won't Be Home For Christmas (UK Bonus Track)
Intro
e|----------------------------------------------------|
B|----------------------------------------------------|
G|-0-0-4-0-5-0-4-0---0-4-0---0-4-0----0-4-0-5-0-4-2-0-|
D|------------------2-------2-------------------------|
A|----------------------------------3-----------------|
E|----------------------------------------------------|

e|----------------------------| x2
B|----------------------------|
G|---0-4-0---0-4-0------------|
D|-0-------0------------------|
A|----------------------------|
E|----------------------------|

Verse                                                       x2
e|---------------------------------------------------------|
B|---------------------------------------------------------|
G|-----------------------------5555555555-5--7777777777-7--|
D|-5555555555-5--2222222222-2--5555555555-5--7777777777-7--|
A|-5555555555-5--2222222222-2--3333333333-3--5555555555-5--|
E|-3333333333-3--0000000000-0------------------------------|
   ...... .      ...... .      ...... .      ...... .

Interlude (sorry not really sure what happens here)
e|----------------------------|
B|----------------------------|
G|--0-0-0-0-0-0-0-0-----------|
D|--5-5-5-5-5-5-5-5-----------|
A|----------------------------|
E|----------------------------|

Verse                                                       x2
e|---------------------------------------------------------|
B|---------------------------------------------------------|
G|-----------------------------5555555555-5--7777777777-7--|
D|-5555555555-5--2222222222-2--5555555555-5--7777777777-7--|
A|-5555555555-5--2222222222-2--3333333333-3--5555555555-5--|
E|-3333333333-3--0000000000-0------------------------------|
   ...... .      ...... .      ...... .      ...... .

Chorus                              x3
e|----------------------------------|
B|----------------------------------|
G|---------777777----------555555---|
D|-555555--777777--222222--555555---|
A|-555555--555555--222222--333333---|
E|-333333----------000000-----------|

ON the 4th time round do this:
e|----------------------------------------|
B|----------------------------------------|
G|---------777777----------555555-5-5-5-5-|
D|-555555--777777--222222--555555-5-5-5-5-|
A|-555555--555555--222222--333333-3-3-3-3-|
E|-333333----------000000-----------------|

Intro
e|----------------------------------------------------|
B|----------------------------------------------------|
G|-0-0-4-0-5-0-4-0---0-4-0---0-4-0----0-4-0-5-0-4-2-0-|
D|------------------2-------2-------------------------|
A|----------------------------------3-----------------|
E|----------------------------------------------------|

e|----------------------------|x2
B|----------------------------|
G|---0-4-0---0-4-0------------|
D|-0-------0------------------|
A|----------------------------|
E|----------------------------|

Verse                                                       x2
e|---------------------------------------------------------|
B|---------------------------------------------------------|
G|-----------------------------5555555555-5--7777777777-7--|
D|-5555555555-5--2222222222-2--5555555555-5--7777777777-7--|
A|-5555555555-5--2222222222-2--3333333333-3--5555555555-5--|
E|-3333333333-3--0000000000-0------------------------------|
   ...... .      ...... .       ...... .      ...... .

Chorus                              x3
e|----------------------------------|
B|----------------------------------|
G|---------777777----------555555---|
D|-555555--777777--222222--555555---|
A|-555555--555555--222222--333333---|
E|-333333----------000000-----------|

ON the 4th time round do this:
e|----------------------------------------|
B|----------------------------------------|
G|---------777777----------555555-5-5-5-5-|
D|-555555--777777--222222--555555-5-5-5-5-|
A|-555555--555555--222222--333333-3-3-3-3-|
E|-333333----------000000-----------------|

Bass Interlude (Tom plays something over the top, but the below chords fit in okay)

Outto                                   x3
e-----------------------------------------|----|
B-----------------------------------------|----|
G-----------77777777------------55555555--|-5~-|
D-55555555--77777777--22222222--55555555--|-5~-|
A-55555555--55555555--22222222--33333333--|-3~-|
E-33333333------------00000000------------|----|

----------------------------------------------------------------------------
18.Go

Intro                                               ...
e|-------------------------------------------------|
B|-------------------------------------------------|
G|-9--9--9--9--9--9--9--9--9--9--9--9--9--9--9--9--|
D|-10-10-10-10-10-10-10-10-10-10-10-10-10-10-10-10-|
A|-7--7--7--7--7--7--7--7--7--7--7--7--7--7--7--7--|
E|-8--8--8--8--8--8--8--8--8--8--8--8--8--8--8--8--|

e|---------------------------------| x2
B|---------------------------------|
G|---------------------------------|
D|-3-3-3-3-3-3-3-3-3-3-3-3-3-3-3-3-|
A|-3-3-3-3-3-3-3-3-3-3-3-3-3-3-3-3-|
E|-1-1-1-1-1-1-1-1-1-1-1-1-1-1-1-1-|

Verse                                 x2
e|-----------------------------------|
B|-----------------------------------|
G|-----------------------------------|
D|-----------------------------------|
A|-33333333333322/55-----------------|
E|-------------------111111111111111-|

Chorus               x2
e|------------------|
B|------------------|
G|------------------|
D|-7777777733333333-|
A|-7777777733333333-|
E|-5555555511111111-|

Intro                                               ...
e|-------------------------------------------------|
B|-------------------------------------------------|
G|-9--9--9--9--9--9--9--9--9--9--9--9--9--9--9--9--|
D|-10-10-10-10-10-10-10-10-10-10-10-10-10-10-10-10-|
A|-7--7--7--7--7--7--7--7--7--7--7--7--7--7--7--7--|
E|-8--8--8--8--8--8--8--8--8--8--8--8--8--8--8--8--|

e|---------------------------------| x2
B|---------------------------------|
G|---------------------------------|
D|-3-3-3-3-3-3-3-3-3-3-3-3-3-3-3-3-|
A|-3-3-3-3-3-3-3-3-3-3-3-3-3-3-3-3-|
E|-1-1-1-1-1-1-1-1-1-1-1-1-1-1-1-1-|

Verse                                                              x2
E|----------------------------------------------------------------|
B|----------------------------------------------------------------|
G|----------------------------------------------------------------|
D|----------------------------------------------------------------|
A|-3-3-3-3-3-3-3-3-3-3-3-3-2-2/-5-5-------------------------------|
E|----------------------------------1-1-1-1-1-1-1-1-1-1-1-1-1-1-1-|

Chorus                               x2
e|----------------------------------|
B|----------------------------------|
G|----------------------------------|
D|-7-7-7-7-7-7-7-7--3-3-3-3-3-3-3-3-|
A|-7-7-7-7-7-7-7-7--3-3-3-3-3-3-3-3-|
E|-5-5-5-5-5-5-5-5--1-1-1-1-1-1-1-1-|

Bridge Some feedback from the amp here on some notes
E|---------------------------------------------|x1
B|---------------------------------------------|
G|---------------------------------------------|
D|---------------------------------------------|
A|-3/-5-/7\-3-3\-2-3/5\-3-3--3/5\-3-3\2/3-3~~~-|
E|---------------------------------------------|

Interlude (Drums)

(Pick slides)
At the end of pick slides:
e|---|x1
B|---|
G|---|
D|-7-|
A|-7-|
E|-5-|

Chorus
E|----------------------------------|x2
B|----------------------------------|
G|----------------------------------|
D|-7-7-7-7-7-7-7-7--3-3-3-3-3-3-3-3-|
A|-7-7-7-7-7-7-7-7--3-3-3-3-3-3-3-3-|
E|-5-5-5-5-5-5-5-5--1-1-1-1-1-1-1-1-|

Outto                                                ...
E|--------------------------------------------------|
B|--------------------------------------------------|
G|- 9--9--9--9--9--9--9--9--9--9--9--9--9--9--9--9--|
D|-10-10-10-10-10-10-10-10-10-10-10-10-10-10-10--10-|
A|- 7--7--7--7--7--7--7--7--7--7--7--7--7--7--7--7--|
E|- 8--8--8--8--8--8--8--8--8--8--8--8--8--8--8--8--|

e|----------------------------------------|  x3
B|----------------------------------------|
G|----------------------------------------|
D|-5-5-5-5--7-7-7-7--9-9-9-9-10-10-10-10--|
A|-x-x-x-x--x-x-x-x--x-x-x-x--x--x--x--x--|
E|-3-3-3-3--5-5-5-5--7-7-7-7--8--8--8--8--|

E|------------------------------------------------|
B|------------------------------------------------|
G|-9--9--9--9--9--9--9--9--9--9--9--9--9----------|
D|-10-10-10-10-10-10-10-10-10-10-10-10-10---3~~~~~|
A|-7--7--7--7--7--7--7--7--7--7--7--7--7----3~~~~~|
E|-8--8--8--8--8--8--8--8--8--8--8--8--8--0-1~~~~~|


So there you have it, this took me ages and ages, so i hope its okay, its you've got any 
or corrections or anything please email me, thanks.
comments
print report bad tab
17 comments total. Showing first comments.
0 reply
gavindavis wrote on November 24 2006, 07:02 am

Most Of The Songs Are Way, Missing Notes , Mutes etc etc
Nice Work Though And Thanks For Putting The Effort In

0 reply
Tjskater wrote on November 24 2006, 03:20 pm

"Intro (I think this could actually be bass)"

I stopped reading after I saw that on "Always".
If you can't tell the most obvious bass line in the world, then, the guitars aren't gonna be accurate really haha.
Other bits are way off quite often too.
But good effort none the less, just stick to reading tabs :].

-1 reply
Tjskater wrote on November 24 2006, 03:20 pm

Wrong.

I want to post or [tab]
guest
You may want to rate the tab now too:
select rating
Please do not post tabs as comments. Select "correction" instead!