Oops, an error
Loading. Please wait.

I Miss You Live Tab

ver1
ver1

Solo

Whole song

More versions @911Tabs.com
5,728 views 12 this week
no commentswrite comment
1 2 3 4 5
excellent!
x 3
add to favorites launch autoscroll
font size
0
reset
Autoscroll
+/-
esc
set tempo
stop
Difficulty
intermediate
WARNING: You are trying to view
                                    content from Ultimate-Guitar.com
                                    in an unauthorized application,
                                    which is prohibited.

                                    Please use an official Ultimate
                                    Guitar Tabs application for iPhone,
                                    iPad or Android to access legitimate
                                    chords, guitar, bass, and drum tabs
                                    from Ultimate-Guitar.com database.

                                    Type "ultimate guitar tabs" in Apple
                                    App Store's or Android Market's
                                    search to find the application.
-----------------------------------------------------------------
I Miss You (Live)
- Blink 182-
-----------------------------------------------------------------
Tabbed by:mannion14
Email:darthmannion14@yahoo.com
Tuning:standard eBGDAE- Capo 2nd

There is much debate on how to play this song. I will post how i like to and some others opinions,
play how it sounds right to you. I've been playing for 4 months and this is my second tab.
Rate, comment, corrections all that stuff and compliments are good too. Get me here at
darthmannion14@yahoo.com with questions and love. Later guys


Intro/ Verse
E|---------------------------------------------------------------|
B|---------------------------------------------------------------|
G|---------------------------------------------------------------|
D|99/13 13 13-----99/13-13-13\9----------------------------------|
A|00/ 0  0  0-x3!-00/0--0--0-\0----------------------------------|
E|77/11 11 11-----77/11 11-11\7----------------------------------|x6 2 for intro, 4 for 
Verse

He uses a minor distortion... just to keep sound at bay... very light,
it can be played clean also. but i like it this way.

Interlude
E|---------------------------------------------------------------|
B|---------------------------------------------------------------|
G|---------------------------------------------------------------|
D|9~---------------9~--------------------------------------------|
A|0~---------------0~--------------------------------------------|
E|7~---------------7~--------------------------------------------|
I Miss you x2... I Miss you x2


Use heavy flange, throw a backward pick scrape in the for fun if you wanna.
Some dont use flange, some use regular distortion , but i hear flange and i use it.

Off with Flange..........

Tom's Verse
He plays nothing in the Summer 2009 tour,
but before the split his chorus was...


E|---------------------------------------------------------------|
B|---------------------------------------------------------------|
G|---------------------------------------------------------------|
D|9---9---6---8--------------------------------------------------|
A|0x4-0x4-0x4-0x4------------------------------------------------|x 4 total!
E|7---6---4---6--------------------------------------------------|
with distortion.......
take that straight into chorus.....

CHORUS!
E|---------------------------------------------------------------|
B|---------------------------------------------------------------|
G|---------------------------------------------------------------|
D|9---9---11---6---8----9----------------------------------------|
A|0x8-0x4-0 x4-0x4-0x 4-0x8 or 10--------------------------------|x 2 total!
E|7---6---9----4---6----7----------------------------------------|
On the second 9-0-7  of each chorus repeat he has a weird strum patten it's a quick
1,2,3 and 4, 1,2,3,and 4


Interlude 2- Sounds Angels and Airwavesish....
I am possitive this is wrong but it sounds close enough to me.
Again With the flange....... and also some delay

E|---------------------------------------------------------------|
B|---------------------------------------------------------------|
G|----11-------11-----11-----------11----------------------------|
D|9-------9\8-----------------8/9--------------------------------|
A|----------------11---------------------------------------------|
E|---------------------------------------------------------------|

E|---------------------------------------------------------------|
B|---------------------------------------------------------------|
G|----11-------11-----11--------------11-------------------------|
D|9-------9\8-----------------8/9-9\8----------------------------|
A|----------------11---------------------------------------------|
E|---------------------------------------------------------------|

off with flange and delay, it has to be quick... or leave flange on, it sounds cool with 
but i dont think he uses it.

Into chorus!

E|---------------------------------------------------------------|
B|---------------------------------------------------------------|
G|---------------------------------------------------------------|
D|9---9---11---6---8----9----------------------------------------|
A|0x8-0x4-0 x4-0x4-0x 4-0x8 or 10--------------------------------|x 4 total!
E|7---6---9----4---6----7----------------------------------------|

On the second 9-0-7  of each chorus repeat he has a weird strum patten it's a quick
1,2,3 ,and, 4, 1,2,3,and, 4

Outro
In the 2009 tour tom did a cute solo here, and before the split, the band just went 
and played
loud fast thrash music.... its your call.

SOLO!: With Flange
E|-------------------------------------------------------------------------|
B|-------------------------------------------------------------------------|
G|-11-11-11-11-11-11-9-9-11-11-11-11-11-11/13\9-9-11-11-11-11-11-11-9-9/11-|
D|-------------------------------------------------------------------------|
A|-------------------------------------------------------------------------|
E|-------------------------------------------------------------------------|

E|-------------------------------------------------------------------------|
B|-------------------------------------------------------------------------|
G|-11-11-11-11-11-13-11-9-8-9-9-9-9-11-11/13-11-9--9-9\8-8/9----11-9-8-8-8-|
D|-----------------------------------------------------------9~------------|
A|-------------------------------------------------------------------------|
E|-------------------------------------------------------------------------|

E|-------------------------------------------------------------------------|
B|-------------------------------------------------------------------------|
G|-9/11-9--9-9-8-8-8-9/11-9/11/13-11\9-8~-8~-------------------------------|
D|-------------------------------------------9~----------------------------|
A|-------------------------------------------------------------------------|
E|-------------------------------------------------------------------------|

Thrash
Play Octave Notes like this
6     8     9
6 and 8 and 9
4     6     7

or chorus notes like this
6     8     9
0 and 0 and 0
4     6     7

randomly, with wild up and down strums, throw in lots of picks scrapes
and build up the strum speed in the beginning and towards the end.
then slow down on the final 4 of 5 strums...
Distortion is heavy on this. I think flange too.

Thats how i play it, very thrashy, however
in the reference video i posted, he plays it really well but i have already tabbed a 
so yea,
figure it out if you wanna know its not hard. So watch these vids and work with the 
its quite easy guys.


a good video to watch for timing.
http://www.youtube.com/watch?v=Z7w75-lqfB0

the video of the performance, the best ive ever seen it.
http://www.youtube.com/watch?v=Fu-jfvH6BNc


LEGEND

h - hammer on
p - pull off
b - bend string up
r - release bend
/ - slide up
\ - slide down
v - vibrato (or ~)
t - right hand tap
x - play 'note' with heavy muting
comments
We did not receive enough feedback on this tab! Please rate:
print report bad tab
1 2 3 4 5
I want to post or [tab]
guest
You may want to rate the tab now too:
select rating
Please do not post tabs as comments. Select "correction" instead!