Oops, an error
Loading. Please wait.

I Wont Be Home For Christmas Bass Tab

ver4
ver4

Whole song

Interactive

More versions @911Tabs.com
713 views 1 this week
no commentswrite comment
1 2 3 4 5
excellent!
x 1
add to favorites launch autoscroll
font size
0
reset
Autoscroll
+/-
esc
set tempo
stop
Contributor
Difficulty
novice
WARNING: You are trying to view
                                    content from Ultimate-Guitar.com
                                    in an unauthorized application,
                                    which is prohibited.

                                    Please use an official Ultimate
                                    Guitar Tabs application for iPhone,
                                    iPad or Android to access legitimate
                                    chords, guitar, bass, and drum tabs
                                    from Ultimate-Guitar.com database.

                                    Type "ultimate guitar tabs" in Apple
                                    App Store's or Android Market's
                                    search to find the application.
Blink 182
I Won't Be Home For Christmas
Bass Tab
Stufin135 (Hellbassist1)

     (Intro I)
     W.                  W                   W                   W                   W   
               W
G||-------------------|-------------------|-------------------|-------------------|-------------------|-------------------|
D||-------------------|-------------------|-------------------|-------------------|-------------------|-------------------|
A||-------------------|-------------------|-------------------|-------------------|-------------------|-------------------|
E||-------------------|-------------------|-------------------|-------------------|-------------------|-------------------|


                                          (Intro II)
  W                   W                   E          E  E  E  E  E  E  E     E  E  E  E  E E  E  E     E  E  E  E  E  E  E  E
-------------------|-------------------|----------------------------------|--------7-----------7-----|--------------------------|
-------------------|-------------------|--5----------5--5--5--5--5--5--5--|--5--5-----5--5--5-----5--|--2--2--2--2--2--2--2--2--|
-------------------|-------------------|----------------------------------|--------------------------|--------------------------|
-------------------|-------------------|----------------------------------|--------------------------|--------------------------|


  E  E  E  E  E  E  E  E     E  E  E  E  E  E  E  E     E  E  E  E  E  E  E  E     E  E  E E  E  E  E  E     E  E  E  E  E  E  E  E
--------4-----------4-----|--------------------------|--------------------------|--------------------------|--------------------------|
--2--2-----2--2--2-----2--|--------------------------|--------7-----------7-----|-----------------5--5-----|-----------------7--7-----|
--------------------------|--5--5--5--5--5--5--5--5--|--5--5-----5--5--5-----5--|--3--3--3--3--3--------5--|--5--5--5--5--5--------7--|
--------------------------|--------------------------|--------------------------|--------------------------|--------------------------|


  E  E  E  E  E  E  E  E     E  E  E  E  E  E  E  E     E  E  E  E  E  E  E  E     E  E  E E  E  E  E  E     E  E  E  E  E  E  E  E
--------------------------|--------7-----------7-----|--------------------------|--------4-----------4-----|--------------------------|
--5--5--5--5--5--5--5--5--|--5--5-----5--5--5-----5--|--2--2--2--2--2--2--2--2--|--2--2-----2--2--2-----2--|--------------------------|
--------------------------|--------------------------|--------------------------|--------------------------|--5--5--5--5--5--5--5--5--|
--------------------------|--------------------------|--------------------------|--------------------------|--------------------------|


                                                                                   (Verse)
  E  E  E  E  E  E  E  E     E  E  E  E  E  E  E  E     E  E  E  E  E  E  E  E     E     
 E  E  E  E  E  E  E     E  E  E  E  E  E  E  E
--------------------------|--------------------------|--------------------------|-------------------------------|--------------------------|
--------7-----------7-----|-----------------5--5-----|-----------------7--7-----|--5-------5--5--5--5--5--5--5--|--5--5--5--5--5--5--0--0--|
--5--5-----5--5--5-----5--|--3--3--3--3--3--------5--|--5--5--5--5--5--------7--|-------------------------------|--------------------------|
--------------------------|--------------------------|--------------------------|-------------------------------|--------------------------|


  E  E  E  E  E  E  E  E     E  E  E  E  E  E  E  E     E  E  E  E  E  E  E  E     E  E  E E  E  E  E  E     E  E  E  E  E  E  E  E
--------------------------|--------------------------|--------------------------|--------------------------|--------------------------|
--2--2--2--2--2--2--2--2--|--2--2--2--2--2--2--------|--------------------------|--------------------------|--------------------------|
--------------------------|--------------------2--2--|--3--3--3--3--3--3--3--3--|--3--3--3--3--3--3--3--3--|--5--5--5--5--5--5--5--5--|
--------------------------|--------------------------|--------------------------|--------------------------|--------------------------|


  E   E  E  E  E  E  E  E     E  E  E  E  E  E  E  E     E  E  E  E  E  E  E  E     E  E 
E  E  E  E  E  E     E  E  E  E  E  E  E  E
---------------------------|--------------------------|--------------------------|--------------------------|--------------------------|
---------------------------|--5--5--5--5--5--5--5--5--|--5--5--5--5--5--5--0--0--|--2--2--2--2--2--2--2--2--|--2--2--2--2--2--2--------|
--7p--5--5--5--3--3--2--2--|--------------------------|--------------------------|--------------------------|--------------------2--2--|
---------------------------|--------------------------|--------------------------|--------------------------|--------------------------|


  E  E  E  E  E  E  E  E     E  E  E  E  E  E  E  E     E  E  E  E  E  E  E  E     E  E  E E  E  E  E  E     E  E  E  E  E  E  E  E
--------------------------|--------------------------|--------------------------|--------------------------|--------------------------|
--------------------------|--------------------------|--------------------------|--------------------------|--5--5--5--5--5--5--5--5--|
--3--3--3--3--3--3--3--3--|--3--3--3--3--3--3--3--3--|--5--5--5--5--5--5--5--5--|--5--5--5--5--5--5--5--5--|--------------------------|
--------------------------|--------------------------|--------------------------|--------------------------|--------------------------|


                             (Verse II)
  E  E  E  E  E  E  E  E     Q          E  E  E  E  E  E     E  E  E  E  E  E  E  E     E E  E  E  E  E  E  E     E  E  E  E  E  E  E  E
--------------------------|-------------------------------|--------------------------|--------------------------|--------------------------|
--5--5--5--5--5--5--5--5--|-------------5--5--5--5--5--5--|--5--5--5--5--5--5--0--0--|--2--2--2--2--2--2--2--2--|--2--2--2--2--2--2--------|
--------------------------|-------------------------------|--------------------------|--------------------------|--------------------2--2--|
--------------------------|--3----------------------------|--------------------------|--------------------------|--------------------------|


  E  E  E  E  E  E  E  E     E  E  E  E  E  E  E  E     E  E  E  E  E  E  E  E     E   E 
E  E  E  E  E  E     E  E  E  E  E  E  E  E
--------------------------|--------------------------|--------------------------|---------------------------|--------------------------|
--------------------------|--------------------------|--------------------------|---------------------------|--5--5--5--5--5--5--5--5--|
--3--3--3--3--3--3--3--3--|--3--3--3--3--3--3--3--3--|--5--5--5--5--5--5--5--5--|--7p--5--5--5--3--3--2--2--|--------------------------|
--------------------------|--------------------------|--------------------------|---------------------------|--------------------------|


  E  E  E  E  E  E  E  E     E  E  E  E  E  E  E  E     E  E  E  E  E  E  E  E     E  E  E E  E  E  E  E     E  E  E  E  E  E  E  E
--------------------------|--------------------------|--------------------------|--------------------------|--------------------------|
--5--5--5--5--5--5--0--0--|--2--2--2--2--2--2--2--2--|--2--2--2--2--2--2--------|--------------------------|--------------------------|
--------------------------|--------------------------|--------------------2--2--|--3--3--3--3--3--3--3--3--|--3--3--3--3--3--3--3--3--|
--------------------------|--------------------------|--------------------------|--------------------------|--------------------------|


                                                  (Chorus)
  E  E  E  E  E  E  E  E     Q    H.              Q        E  E  E  E  E  E     Q    E  E E  E  E  E     E  E  E  E  E  E  E  E
--------------------------|--------------------|-----------------------------|-------------------------|--------------------------|
--------------------------|--------------------|-----------------------------|-------------------------|--------------------------|
--5--5--5--5--5--5--5--5--|--5-----------------|-----------------------------|--5----5--5--5--5--5--5--|--------------------------|
--------------------------|--------------------|--3--------3--3--3--3--3--3--|-------------------------|--0--0--0--0--0--0--0--0--|


  E  E  E  E  E  E  E   E     Q    E  E  E  E  E  E     Q    E  E  E  E  E  E     E  E  E E  E  E  E  E     E  E  E  E  E  E  E   E
---------------------------|-------------------------|-------------------------|--------------------------|---------------------------|
---------------------------|-------------------------|-------------------------|--------------------------|---------------------------|
--3--3--3--3--3--3--3h--5--|-------------------------|--5----5--5--5--5--5--5--|--------------------------|--3--3--3--3--3--3--3h--5--|
---------------------------|--3----3--3--3--3--3--3--|-------------------------|--0--0--0--0--0--0--0--0--|---------------------------|


  E  E  E  E  E  E  E  E     E  E  E  E  E  E  E  E     E  E  E  E  E  E  E  E     E  E  E E  E  E  E   E     E  E  E  E  E  E  E  E
--------------------------|--------------------------|--------------------------|---------------------------|--------------------------|
--------------------------|--------------------------|--------------------------|---------------------------|--------------------------|
--------------------------|--5--5--5--5--5--5--5--5--|--------------------------|--3--3--3--3--3--3--3h--5--|--------------------------|
--3--3--3--3--3--3--3--3--|--------------------------|--0--0--0--0--0--0--0--0--|---------------------------|--3--3--3--3--3--3--3--3--|


  E  E  E  E  E  E  E  E     E  E  E  E  E  E  E  E     E  E  E  E  E  E  E  E     E  E  E E  E  E  E  E
--------------------------|--------------------------|--------------------------|--------------------------|
--------------------------|--------------------------|--------------------------|--------------------------|
--5--5--5--5--5--5--5--5--|--------------------------|--3--3--3--3--3--3--3--3--|--5--5--5--5--5--5--5--5--|
--------------------------|--0--0--0--0--0--0--0--0--|--------------------------|--------------------------|


  (Pre-Verse)
  E           E  E  E  E  E  E  E     E  E  E  E  E  E  E  E     E  E  E  E  E  E  E  E  
  E  E  E  E  E  E  E  E
-----------------------------------|--------7-----------7-----|--------------------------|--------4-----------4-----|
--5-----------5--5--5--5--5--5--5--|--5--5-----5--5--5-----5--|--2--2--2--2--2--2--2--2--|--2--2-----2--2--2-----2--|
-----------------------------------|--------------------------|--------------------------|--------------------------|
-----------------------------------|--------------------------|--------------------------|--------------------------|


  E  E  E  E  E  E  E  E     E  E  E  E  E  E  E  E     E  E  E  E  E  E  E  E     E  E  E E  E  E  E  E     E  E  E  E  E  E  E  E
--------------------------|--------------------------|--------------------------|--------------------------|--------------------------|
--------------------------|--------7-----------7-----|-----------------5--5-----|-----------------7--7-----|--5--5--5--5--5--5--5--5--|
--5--5--5--5--5--5--5--5--|--5--5-----5--5--5-----5--|--3--3--3--3--3--------5--|--5--5--5--5--5--------7--|--------------------------|
--------------------------|--------------------------|--------------------------|--------------------------|--------------------------|


  E  E  E  E  E  E  E  E     E  E  E  E  E  E  E  E     E  E  E  E  E  E  E  E     E  E  E E  E  E  E  E     E  E  E  E  E  E  E  E
--------7-----------7-----|--------------------------|--------4-----------4-----|--------------------------|--------------------------|
--5--5-----5--5--5-----5--|--2--2--2--2--2--2--2--2--|--2--2-----2--2--2-----2--|--------------------------|--------7-----------7-----|
--------------------------|--------------------------|--------------------------|--5--5--5--5--5--5--5--5--|--5--5-----5--5--5-----5--|
--------------------------|--------------------------|--------------------------|--------------------------|--------------------------|


                                                        (Verse III)
  E  E  E  E  E  E  E  E     E  E  E  E  E  E  E  E     E           E  E  E  E  E  E  E  
  E  E  E  E  E  E  E  E
--------------------------|--------------------------|-----------------------------------|--------------------------|
-----------------5--5-----|-----------------7--7-----|--5-----------5--5--5--5--5--5--5--|--5--5--5--5--5--5--0--0--|
--3--3--3--3--3--------5--|--5--5--5--5--5--------7--|-----------------------------------|--------------------------|
--------------------------|--------------------------|-----------------------------------|--------------------------|


  E  E  E  E  E  E  E  E     E  E  E  E  E  E  E  E     E  E  E  E  E  E  E  E     E  E  E E  E  E  E  E     E  E  E  E  E  E  E  E
--------------------------|--------------------------|--------------------------|--------------------------|--------------------------|
--2--2--2--2--2--2--2--2--|--2--2--2--2--2--2--------|--------------------------|--------------------------|--------------------------|
--------------------------|--------------------2--2--|--3--3--3--3--3--3--3--3--|--3--3--3--3--3--3--3--3--|--5--5--5--5--5--5--5--5--|
--------------------------|--------------------------|--------------------------|--------------------------|--------------------------|


  E   E  E  E  E  E  E  E     E  E  E  E  E  E  E  E     E  E  E  E  E  E  E  E     E  E 
E  E  E  E  E  E     E  E  E  E  E  E  E  E
---------------------------|--------------------------|--------------------------|--------------------------|--------------------------|
---------------------------|--5--5--5--5--5--5--5--5--|--5--5--5--5--5--5--0--0--|--2--2--2--2--2--2--2--2--|--2--2--2--2--2--2--------|
--7p--5--5--5--3--3--2--2--|--------------------------|--------------------------|--------------------------|--------------------2--2--|
---------------------------|--------------------------|--------------------------|--------------------------|--------------------------|


                                                                                         
              (Chorus II)
  E  E  E  E  E  E  E  E     E  E  E  E  E  E  E  E     E  E  E  E  E  E  E  E     Q    
             Q           E  E  E  E  E  E
--------------------------|--------------------------|--------------------------|--------------------|--------------------------------|
--------------------------|--------------------------|--------------------------|--------------------|--------------------------------|
--3--3--3--3--3--3--3--3--|--3--3--3--3--3--3--3--3--|--5--5--5--5--5--5--5--5--|--5-----------------|--------------------------------|
--------------------------|--------------------------|--------------------------|--------------------|--3-----------3--3--3--3--3--3--|


  Q    E  E  E  E  E  E     E  E  E  E  E  E  E  E     E  E  E  E  E  E  E   E     Q    E E  E  E  E  E     Q    E  E  E  E  E  E
-------------------------|--------------------------|---------------------------|-------------------------|-------------------------|
-------------------------|--------------------------|---------------------------|-------------------------|-------------------------|
--5----5--5--5--5--5--5--|--------------------------|--3--3--3--3--3--3--3h--5--|-------------------------|--5----5--5--5--5--5--5--|
-------------------------|--0--0--0--0--0--0--0--0--|---------------------------|--3----3--3--3--3--3--3--|-------------------------|


  E  E  E  E  E  E  E  E     E  E  E  E  E  E  E   E     E  E  E  E  E  E  E  E     E  E 
E  E  E  E  E  E     E  E  E  E  E  E  E  E
--------------------------|---------------------------|--------------------------|--------------------------|--------------------------|
--------------------------|---------------------------|--------------------------|--------------------------|--------------------------|
--------------------------|--3--3--3--3--3--3--3h--5--|--------------------------|--5--5--5--5--5--5--5--5--|--------------------------|
--0--0--0--0--0--0--0--0--|---------------------------|--3--3--3--3--3--3--3--3--|--------------------------|--0--0--0--0--0--0--0--0--|


  E  E  E  E  E  E  E   E     E  E  E  E  E  E  E  E     E  E  E  E  E  E  E  E     E  E 
E  E  E  E  E  E     E  E  E  E  E  E  E  E
---------------------------|--------------------------|--------------------------|--------------------------|--------------------------|
---------------------------|--------------------------|--------------------------|--------------------------|--------------------------|
--3--3--3--3--3--3--3h--5--|--------------------------|--5--5--5--5--5--5--5--5--|--------------------------|--3--3--3--3--3--3--3--3--|
---------------------------|--3--3--3--3--3--3--3--3--|--------------------------|--0--0--0--0--0--0--0--0--|--------------------------|


                              (Bridge)
  E  E  E  E  E  E  E  E      E        E   Q     E   E   Q        E   E   Q     E   E   Q       E  E  Q    E  E  Q
--------------------------|-----------------------------------|-------------------------------|-------------------------|
--------------------------|---------------12------------12----|----------12------------12\----|--------9----------9\----|
--5--5--5--5--5--5--5--5--|--10-------10--------10--10--------|--12--12--------12--12---------|--7--7-------7--7--------|
--------------------------|-----------------------------------|-------------------------------|-------------------------|


  E  E  Q    E  E  Q         E   E   Q     E   E   Q        E   E   Q     E   E   Q      
 E  E  Q    E  E  Q
-------------------------|------------------------------|-------------------------------|-------------------------|
--------5----------5/----|----------12------------12----|----------12------------12\----|--------9----------9\----|
--3--3-------3--3--------|--10--10--------10--10--------|--12--12--------12--12---------|--7--7-------7--7--------|
-------------------------|------------------------------|-------------------------------|-------------------------|


  E  E  Q    E  E  Q         E   E   Q     E   E   Q        E   E   Q     E   E   Q      
 E  E  Q    E  E  Q
-------------------------|------------------------------|-------------------------------|-------------------------|
--------5----------5/----|----------12------------12----|----------12------------12\----|--------9----------9\----|
--3--3-------3--3--------|--10--10--------10--10--------|--12--12--------12--12---------|--7--7-------7--7--------|
-------------------------|------------------------------|-------------------------------|-------------------------|


  E  E  Q    E  E  Q         E   E   Q     E   E   Q        E   E   Q     E   E   Q      
 E  E  Q    E  E  Q
-------------------------|------------------------------|-------------------------------|-------------------------|
--------5----------5/----|----------12------------12----|----------12------------12\----|--------9----------9\----|
--3--3-------3--3--------|--10--10--------10--10--------|--12--12--------12--12---------|--7--7-------7--7--------|
-------------------------|------------------------------|-------------------------------|-------------------------|


                              (Outro)
  E  E  E  E  E  E  E  E      E       E   Q     E   E   Q        E   E   Q     E   E   Q 
      E  E  Q    E  E  Q
--------------------------|----------------------------------|-------------------------------|-------------------------|
--------------------------|--------------12------------12----|----------12------------12\----|--------9----------9\----|
--3--3--3--3--3--3--3--3--|--10------10--------10--10--------|--12--12--------12--12---------|--7--7-------7--7--------|
--------------------------|----------------------------------|-------------------------------|-------------------------|


  E  E  Q    E  E  Q         E   E   Q     E   E   Q        E   E   Q     E   E   Q      
 E  E  Q    E  E  Q
-------------------------|------------------------------|-------------------------------|-------------------------|
--------5----------5/----|----------12------------12----|----------12------------12\----|--------9----------9\----|
--3--3-------3--3--------|--10--10--------10--10--------|--12--12--------12--12---------|--7--7-------7--7--------|
-------------------------|------------------------------|-------------------------------|-------------------------|


  E  E  E  E  E  E  E  E      E   E   Q     E   E   Q        E   E   Q     E   E   Q     
  E  E  Q    E  E  Q
--------------------------|------------------------------|-------------------------------|-------------------------|
--------------------------|----------12------------12----|----------12------------12\----|--------9----------9\----|
--3--3--3--3--3--3--3--3--|--10--10--------10--10--------|--12--12--------12--12---------|--7--7-------7--7--------|
--------------------------|------------------------------|-------------------------------|-------------------------|


  E  E  Q    E  E  Q         E   E   Q     E   E   Q        E   E   Q     E   E   Q      
 E  E  Q    E  E  Q
-------------------------|------------------------------|-------------------------------|-------------------------|
--------5----------5/----|----------12------------12----|----------12------------12\----|--------9----------9\----|
--3--3-------3--3--------|--10--10--------10--10--------|--12--12--------12--12---------|--7--7-------7--7--------|
-------------------------|------------------------------|-------------------------------|-------------------------|


  E  E  E  E  E  E  Q         W                   W                   W                  
W                   W
--------------------------|--------------------|-------------------|-------------------|-------------------|-------------------||
--------------------------|--------------------|-------------------|-------------------|-------------------|-------------------||
--3--3--3--3--3--3--3S----|--10----------------|--L----------------|--L----------------|--L----------------|--L----------------||
--------------------------|--------------------|-------------------|-------------------|-------------------|-------------------||
comments
We did not receive enough feedback on this tab! Please rate:
print report bad tab
1 2 3 4 5
I want to post or [tab]
guest
You may want to rate the tab now too:
select rating
Please do not post tabs as comments. Select "correction" instead!