Oops, an error
Loading. Please wait.

Neighborhoods Bass Tab

ver1
ver1

Album

More versions @911Tabs.com
8,679 views 24 this week
1 commentread comment
1 2 3 4 5
worth learning
x 6
add to favorites launch autoscroll
font size
0
reset
Autoscroll
+/-
esc
set tempo
stop
Contributor
Difficulty
intermediate
WARNING: You are trying to view
                                    content from Ultimate-Guitar.com
                                    in an unauthorized application,
                                    which is prohibited.

                                    Please use an official Ultimate
                                    Guitar Tabs application for iPhone,
                                    iPad or Android to access legitimate
                                    chords, guitar, bass, and drum tabs
                                    from Ultimate-Guitar.com database.

                                    Type "ultimate guitar tabs" in Apple
                                    App Store's or Android Market's
                                    search to find the application.
HEY GUYS THIS IS BLINK 182'S NEW ALBUM, NEIGHBORHOODS. I HAVE EVERY SONG'S BASS TAB ON
HERE ITS ONLY A ROUGH OUTLINE BUT IF YOU LISTEN TO ALL THE SONGS YOU WILL KNOW HOW MANY
TIMES TO PLAY EACH NOTE AND SO ON. ENJOY!
OF COURSE YOU PLAY THE NOTES MORE THAN ONCE ON THE SONGS YOU CAN GET THE TIMING DOWN ALL
THESE SONGS ARE VERY PLAYABLE. ANY QUESTIONS/COMMENTS POST OR SEND ME AN EMAIL 
aruffolo12@yahoo.com


1.Ghost On the Dance Floor


Intro

G |--------------------------------|
D |--------------------------------|
A |--2--4--2--9--7--9--7--9--------|
E |--------------------------------|


Verse

G |----------------------------------|
D |----------------------------------|
A |--2-------------------------------| x2
E |------0---4--2--0-----------------|

Verse pt 2

Starts at "its like the universe has left me..."

G |------------------------------------------------|
D |------------------------------------------------|
A |---2--4--11--9--7--------2--4-------------------|
E |------------------------------------4--2--0-----|

Chorus

G |--------------------------------|
D |--------------------------------|
A |----2---4---7---9---------------|
E |--------------------------------|

2nd verse

G |-------------------------------------------------------|
D |-------------------------------------------------------|
A |--2-----------------7---------2----4---11---7----------|
E |------0--4--2--0---------------------------------------|
AND SO ON AND SO ON IF YOU LISTEN TO SONG YOU WILL GET ORDER


2. Natives


Intro

G |----------------------------------|
D |----------------------------------|
A |----------------2--4--------------|
E |--4--0--4--0---------4--0---------|

Verse

G |-----------------------------------|
D |-----------------------------------|
A |-----------------------------------|
E |---4----6----0---------------- x 4-|

Chorus

G |--------------------------------------|
D |--------------------------------------|
A |---2--7--2--7-----------2---7---------|
E |------------------4--0----------------|

Pre verse #2

G |----------------------------------|
D |----------------------------------|
A |--2----4--------------------------|
E |------------4----0----------------|

Bridge

G |----------------------------------------|
D |----------------------------------------|
A |---2-------2--------2---7---11--7-------|
E |-------0-------0------------------------|

Outro

G |-------------------------------------|
D |-------------------------------------|
A |---2---7---2---7---------------------|
E |---------------------4--6--0---------|


3. Up All Night


Intro
G |
D |--9-(x4)----8-(x4)----7-(x8)-----6-(x8)-------0-(x8)
A |
E |
First and second time^ . Third time 0 changes to a 5

Heavy riff

D |----------------------------------------------------------|
A |-------------7--7-----------------------------------------|
E |--5--4--0---------0--5--4--0--6--7--7--6--6--5--5---------|

Verse

A |---0--2--7--5---|
E |----------------|

Prechorus

G |------------------------|
D |------------------------|
A |--9--11--0--7--9--5-----|
E |------------------------|
Play each note 16 times

Chorus

G |--------------------------------------------------|
D |--------------------------------------------------|
A |----0 (x16)--------7 (x8)---------5(x8)-----------|
E |--------------------------------------------------|

Verse 2

G |-------------------------------------|
D |-----------14----------14-------14---|
A |---12-12-----12-12-------12----------|
E |-------------------------------------|
Use this pattern for the notes^ the rest of the notes are as follows

G |-------------------------------------|
D |---------11---------11-------11------|
A |---9-9-------9-9-------9-------------|
E |-------------------------------------|

G |-------------------------------------|
D |----------7-----------7--------7-----|
A |---5-5--------5-5---------5----------|
E |-------------------------------------|


4. After Midnight


SONG IS IN DROP D

Intro

G |-------------------- -------------------|
D |--------------------- ------------------|
A |----0-0-----0-0---- x4 ---5-5---5-5-----|
D |--------------------- ------------------|

Verse

G |-----------------------|
D |-----------------------|
A |----0---------- -------|
D |------------0----------|


The two notes. Very easy to hear the changes

prechorus

G |--------------------------------|
D |--------------------------------|
A |---9----5----0-------9----5-----|
D |--------------------- ----------|
Once again. Just listen for the changes


Chorus

G |---------------------|
D |---------------------|
A |----0---------- -----|
D |------------0--------|


Just listen for changes again

Post chorus #1

G |---------------------------|
D |---------------------------|
A |----0-0-0-0-0-0-0-0--------|
D |---------------------------|


Plays like the "intro" but more notes are played instead of the usual 2 notes

Bridge pt 1

G |----9---7---9---7---------------|
D |----7---7---7---7---7-----------|
A |- ------------- -------5--- x 2-|
D |--------------------------------|

Bridge part 2

G |----------------------|
D |---9---11---7---------|
A |---7---9--- -5--------| x2
D |----------------------|


5. Snake Chamber


intro


G |------------------------------- ---------------------|
D |------------------------------- ---------------------|
A |---0-0-0-0-2p0---0-0-0-0-4p0--- x4. Then hit --------|
E |-------------------------------------- ---0----------|

Intro riff 2

G |---------------------------------|
D |---------------------------------|
A |--4p0-0-0-0-0-0------------------|
E |---------------------4-----------|

Verse

G |-----------------------------------|
D |-----------------------------------|
A |-----------------------------------|
E |----0-0-0--------------------------|
At very end of verse

Chorus

G |--------------------------------------------------------------------|
D |--------------------------------------------------------------------|
A |--------------5--------------5-------11--9--5--------------5--------|
E |---5--4--2-------5--4--2-------5---------------5--4--2--------------|


VERSE 2 PLAY INTRO RIFF

BRIDGE
G |---------------------------------------|
D |---------------------------------------|
A |----------------5--7-------------5-----|
E |---5--2--0------------5--2--0----------|


6. Hearts All Gone


Intro


g--------------------------------------------------------------------------|
d--------------------------------------------------------------------------|
a-----0000-0000000000------------------------------------------------------|
e--------------------1111-1111111111---------------------------------------|


Verse 1.1

g--------------------------------------------------------------------------|
d--------------------------------------------------------------------------|
a-----0~000000000000000~000000000000008~888888888888888~88888888888888-----|
e--------------------------------------------------------------------------|


Verse 1.2

g----------------------------------------------------------------------------|
d----------------------------------------------------------------------------|
a---0~0000000000000000000000000000088888888888888810101010101010101010101010-|
e----------------------------------------------------------------------------|


Chorus

g--------------------------------------------------------------------------|
d--------------------------------------------------------------------------|
a-----3~333333333333335~55555555555555-------------------------------------|
e-------------------------------------0~0000001~1111110~0000001~111111-----|


Bridge 1

g--------------------------------------------------------------------------|
d-----77-577-799-91097--------1010-1012109---------------------------------|
a---------------------88-788-7---------------------------------------------|
e--------------------------------------------------------------------------|


Bridge 2

g--------------------------------------------------------------------------|
d--------------------------------------------------------------------------|
a-----0~0000000~0000000~0000000~000000-------------------------------------|
e-------------------------------------1~111111~1111111~1111111~111111------|


7. Wishing Well


Intro


G |--------------------------------|
D |--------------------------------|
A |---0--8--3--5-------------------|
E |--------------------------------|

Verse

G |------------------------------------|
D |------------------------------------|
A |---0--8--3--5------0-----3--5-------|
E |-------------------------1----------|

prechorus

G |---------------------------------------------|
D |---------------------------------------------|
A |---7--8--3--5---7-7-7-7-7-8---3-5------------|
E |---------------------------------------------|

Chorus #1

G |--------------------------------|
D |--------------------------------|
A |----3--------------8------------|
E |---------3---5------------------|


Bridge

G |------------------------------------------------|
D |------------------------------------------------|
A |----5----8----3----------5--------3----10-------|
E |-------------------3-----------1----------------|

Last chorus

G |---------------------------------------------------------------------------|
D |--------5------5-------7-------3--------------5------5-----7----3----------|
A |----3--------------0-----------------------3-------------0-----------------| x2
E |------------3---------------1----------------------3-----------------------|


8. Kaleidoscope


 DROP D

verse


G |-------------------------------------------------|
D |-------------------------------------------------|
A |---2---2---2---2--2---------0--2--0--0--2--------|
D |------------------------0--0---------------------|

G |--------------------------------------------------------------|
D |---------5--------5-------5-------5---5----7----5---7---------|
A |----2--------2--------2------2--------------------------------|
D |--------------------------------------------------------------|

CHORUS

G |------------------------------- -----------------|
D |------------------------------- END ON ----------|
A |------------------------------- ---2-------------|
D |---0---7---0---7--4---5----- --------------------|

VERSE 2


G |----------------------------|
D |----------------------------|
A |--2------2------2-----------| ETC
D |------5------5------5-------|

PRE 2NDCHORUS

G |-------------------------------------------------|
D |-------------------------------------------------|
A |-------------------------------------------------|
D |---0----7---9---7------5---7---5---7-------------|

BRIDGE

G |-------------------------------------------------|
D |-------------------------------------------------|
A |-------------------------------------------------|
D |---0---5---0---2---0---5---0---2-----------------| ETC


9. This is Home


INTRO

G |------------------------------------------------------|
D |------------------------------------------------------|
A |---0-------5----0---------5---9---7-------------------|
E |-------2--------------2-------------------------------|

VERSE

G |--------------------------------------------------|
D |--------------------------------------------------|
A |----0------5------0------5------------------------|
E |--------------------------------------------------|

CHORUS

G |----------------------------------------------------|
D |----------------------------------------------------|
A |---5---0---9---2------5--0---7----------------------|
E |----------------------------------------------------|

BRIDGE

G |--------------------------------------------------|
D |------12------11------9-----7---------------------|
A |-12-------9--------7-----5------------------------|
E |--------------------------------------------------|


10. MH 4.18.2011



INTRO

G |----------------------------------------------------------|
D |----------------------------------------------------------|
A |--0---7---9-----0---7---9----0---7---9---0---7---9--------|
E |----------------------------------------------------------|

END ON

G |--------------------------------------------------|
D |--------------------------------------------------|
A |---7---7---7---7----------------------------------|
E |--------------------------------------------------|

VERSE

G |------------------------------------------------------------------------|
D |------------------------------------------------------------------------|
A |---7---0---7---0---7---0---7---0-----2---4--0---2---4---0---------------|
E |-------------------------------------------------------------------4----|

CHORUS
*SAME AS INTRO


BRIDGE

G |-------------------------------------------------|
D |-------------------------------------------------|
A |-------------------------------------------------|
E |---5---4---5---9--7-----5--5--5--5---------------|


11. Love is Dangerous


INTRO/VERSE

G |---------------------------------------------------|
D |---------------------------------------------------|
A |---2---5-------------------------------------------|
E |-------------3-------------------------------------|

CHORUS

G |---------------------------------------------------|
D |---------------------------------------------------|
A |----2---0------------------------------------------|
E |-------------3-------------------------------------|

SECOND CHORUS HAS HIGHER OCTAVES DURING 3RD TIME THROUGH

BRIDGE

G |-----------------------------------------------------|
D |-----------------------------------------------------|
A |----5---0-----------5----0---------------------------|
E |-------------3----------------0---3------------------|


12. Even if She Falls


INTRO

G |----------------------------------------------------|
D |----------------------------------------------------|
A |-------------5---4----------------------------------|
E |----2---3-------------------------------------------|

VERSE

G |-------------------------------------------------|
D |-------------------------------------------------|
A |-----5-------------------------------------------|
E |----------3---7---5------------------------------|

CHORUS

G |--------------------------------------------------|
D |--------------------------------------------------|
A |-----5---0---2---0--------------------------------|
E |--------------------------------------------------|

SECOND CHORUS - 3RD TIME THROUGH

G |--------------------------------------------------|
D |--------------------------------------------------|
A |----5--7---9---10---------------------------------|
E |--------------------------------------------------|

BRIDGE

G |------------------------------------------------------|
D |------------------------------------------------------|
A |-----5-------------------5---7---9---10---------------|
E |---------0---2--3-------------------------------------|


OF COURSE YOU PLAY THE NOTES MORE THAN ONCE ON THE SONGS YOU CAN GET THE TIMING DOWN ALL
THESE SONGS ARE VERY PLAYABLE. ANY QUESTIONS/COMMENTS POST OR SEND ME AN EMAIL 
aruffolo12@yahoo.com
comments
print report bad tab
1 comment total.
+1 reply
RobMcdonald wrote on October 20 2011, 02:45 am

Good work. Gives a great starting point for the songs.

I want to post or [tab]
guest
You may want to rate the tab now too:
select rating
Please do not post tabs as comments. Select "correction" instead!