Oops, an error
Loading. Please wait.

Please Take Me Home Tab

ver5
ver5
More versions @911Tabs.com
1,236 views 1 this week
1 commentread comment
1 2 3 4 5
accurate
x 4
Autoscroll
+/-
esc
set tempo
stop
Difficulty
novice
Hey! There's an official Ultimate Guitar app which is ideal
for learning songs when you're away from computer. Get the app
WARNING: You are trying to view
                                    content from Ultimate-Guitar.com
                                    in an unauthorized application,
                                    which is prohibited.

                                    Please use an official Ultimate
                                    Guitar Tabs application for iPhone,
                                    iPad or Android to access legitimate
                                    chords, guitar, bass, and drum tabs
                                    from Ultimate-Guitar.com database.

                                    Type "ultimate guitar tabs" in Apple
                                    App Store's or Android Market's
                                    search to find the application.
Blink 182 - Please Take Me Home

i love this song... its really fun to play and i think both guitar parts together
sound awesome. everything is in order, so just read all the way through the tab.
standard tuning.

 Key:

 / - slide up
 \ - slide down
 x - left hand mute
 . - palm mute
 t - triples
 ~ - let it ring

---------------------------------------------------------------------------------- 
Intro

   1 + 2 + 3 + 4 +   1 + 2 + 3 + 4 +   1 + 2 + 3 + 4 +   1 + 2 + 3 + 4 +
E|-----------------|-----------------|-----------------|-----------------|
B|-----------------|-----------------|-----------------|-----------------|
G|-----------------|-----------------|-----------------|-----------------|
D|-----------------|-----------------|-----------------|-----------------|
A|-----------------|-----------------|-----------------|---------------1/|
E|-----------------|-----------------|-----------------|-----------------|
 |
 |
 | 1 + 2 + 3 + 4 +   1 + 2 + 3 + 4 +   1 + 2 + 3 + 4 +   1 + 2 + 3 + 4 +
E|-----------------|-----------------|-----------------|-----------------|
B|-----------------|-----------------|-----------------|-----------------|
G|-----------------|-----------------|-----------------|-----------------|
D|-----------------|-----------------|-----------------|-----------------|
A|-----------------|-----------------|-----------------|-----------------|
E|-----------------|-----------------|-----------------|-----------------|


   1 + 2 + 3 + 4 +   1 + 2 + 3 + 4 +   1 + 2 + 3 + 4 +   1 + 2 + 3 + 4 +
E|-----------------|-----------------|-----------------|-----------------|
B|-----------------|-----------------|-----------------|-----------------|
G|-----------------|-----------------|-----------------|-----------------|
D|-1-1-1-1-1-1-1-1-|-1-1-1-1-1-1-1-1-|-1-1-1-1-1-1-1-1-|-----------------|
A|-----------------|-----------------|-----------------|-2-2-2-2-2-2-2-2~|
E|-----------------|-----------------|-----------------|-----------------|
 |
 |
 | 1 + 2 + 3 + 4 +   1 + 2 + 3 + 4 +   1 + 2 + 3 + 4 +   1 + 2 + 3 + 4 +
E|-----------------|-----------------|-----------------|-----------------|
B|-----------------|-----------------|-----------------|-----------------|
G|-----------------|-----------------|-----------------|-----------------|
D|-----------------|-----------------|-----------------|-----------------|
A|-----------------|-----------------|-----------------|-----------------|
E|-----------------|-----------------|-----------------|-----------------|


   1 + 2 + 3 + 4 +   1 + 2 + 3 + 4 +   1 + 2 + 3 + 4 +   1 + 2 + 3 + 4 +
E|-----------------|-----------------|-----------------|-----------------|
B|-----------------|-----------------|-----------------|-----------------|
G|-----------------|-----------------|-----------------|-----------------|
D|---1-1-1-1-1-1-1-|-1-1-1-1-1-1-1-1-|-1-1-1-1-1-1-1-1-|-----------------|
A|-----------------|-----------------|-----------------|-2-2-2-2-2-2-2-2~|
E|-----------------|-----------------|-----------------|-----------------|
 |
 |
 | 1 + 2 + 3 + 4 +   1 + 2 + 3 + 4 +   1 + 2 + 3 + 4 +   1 + 2 + 3 + 4 +
E|-----------------|-----------------|-----------------|-----------------|
B|-----------------|-----------------|-----------------|-----------------|
G|-----------------|-----------------|-----------------|-----------------|
D|-----------------|-----------------|-----------------|-----------------|
A|-----------------|-----------------|-----------------|-----------------|
E|-----------------|-----------------|-----------------|-----------------|


Verse

   1 + 2 + 3 + 4 +   1 + 2 + 3 + 4 +   1 + 2 + 3 + 4 +   1 + 2 + 3 + 4 +
E|-----------------|-----------------|-----------------|-----------------|
B|-----------------|-----------------|-----------------|-----------------|
G|-----------------|-----------------|-----------------|-----------------|
D|---1-1-1-1-1-1-1-|-1-1-1-1-1-1-1-1-|-1-1-1-1-1-1-1-1-|-----------------|
A|-----------------|-----------------|-----------------|-2-2-2-2-2-2-2-2~|
E|-----------------|-----------------|-----------------|-----------------|
 |
 |
 | 1 + 2 + 3 + 4 +   1 + 2 + 3 + 4 +   1 + 2 + 3 + 4 +   1 + 2 + 3 + 4 +
E|-----------------|-----------------|-----------------|-----------------|
B|-----------------|-----------------|-----------------|-----------------|
G|-----------------|-----------------|-----------------|-----------------|
D|---4-4-4-4-4-4-4-|-6-6-6-6-6-6-6-6-|-----------------|-----------------|
A|---2-2-2-2-2-2-2-|-4-4-4-4-4-4-4-4-|-6-6-6-6-6-6-6-6-|-2-2-2-2-2-2-2-2-|
E|-----------------|-----------------|-4-4-4-4-4-4-4-4-|-0-0-0-0-0-0-0-0-|
     . . . . . . .   . . . . . . . .   . . . . . . . .   . . . . . . . . 


   1 + 2 + 3 + 4 +   1 + 2 + 3 + 4 +   1 + 2 + 3 + 4 +   1 + 2 + 3 + 4 +
E|-----------------|-----------------|-----------------|-----------------|
B|-----------------|-----------------|-----------------|-----------------|
G|-----------------|-----------------|-----------------|-----------------|
D|---1-1-1-1-1-1-1-|-1-1-1-1-1-1-1-1-|-1-1-1-1-1-1-1-1-|-----------------|
A|-----------------|-----------------|-----------------|-2-2-2-2-2-2-2-2~|
E|-----------------|-----------------|-----------------|-----------------|
 |
 |
 | 1 + 2 + 3 + 4 +   1 + 2 + 3 + 4 +   1 + 2 + 3 + 4 +   1 + 2 + 3 + 4 +
E|-----------------|-----------------|-----------------|-----------------|
B|-----------------|-----------------|-----------------|-----------------|
G|-----------------|-----------------|-----------------|-----------------|
D|---4-4-4-4-4-4-4-|-6-6-6-6-6-6-6-6-|-----------------|-----------------|
A|---2-2-2-2-2-2-2-|-4-4-4-4-4-4-4-4-|-6-6-6-6-6-6-6-6-|-2-2-2-2-2-2-2-2-|
E|-----------------|-----------------|-4-4-4-4-4-4-4-4-|-0-0-0-0-0-0-0-0-|
     . . . . . . .   . . . . . . . .   . . . . . . . .   . . . . . . . . 


   1 + 2 + 3 + 4 +   1 + 2 + 3 + 4 +   1 + 2 + 3 + 4 +   1 + 2 + 3 + 4 +
E|-----------------|-----------------|-----------------|-----------------|
B|-----------------|-----------------|-----------------|-----------------|
G|-----------------|-----------------|-----------------|-----------------|
D|---1-1-1-1-1-1-1-|-1-1-1-1-1-1-1-1-|-1-1-1-1-1-1-1-1-|-----------------|
A|-----------------|-----------------|-----------------|-2-2-2-2-2-2-2-2~|
E|-----------------|-----------------|-----------------|-----------------|
 |
 |
 | 1 + 2 + 3 + 4 +   1 + 2 + 3 + 4 +   1 + 2 + 3 + 4 +   1 + 2 + 3 + 4 +
E|-----------------|-----------------|-----------------|-----------------|
B|-----------------|-----------------|-----------------|-----------------|
G|-----------------|-----------------|-----------------|-----------------|
D|---4-4-4-4-4-4-4-|-6-6-6-6-6-6-6-6-|-----------------|-----------------|
A|---2-2-2-2-2-2-2-|-4-4-4-4-4-4-4-4-|-6-6-6-6-6-6-6-6-|-2-2-2-2-2-2-2-2-|
E|-----------------|-----------------|-4-4-4-4-4-4-4-4-|-0-0-0-0-0-0-0-0-|
     . . . . . . .   . . . . . . . .   . . . . . . . .   . . . . . . . . 


   1 + 2 + 3 + 4 +   1 + 2 + 3 + 4 +   1 + 2 + 3 + 4 +   1 + 2 + 3 + 4 +
E|-----------------|-----------------|-----------------|-----------------|
B|-----------------|-----------------|-----------------|-----------------|
G|-----------------|-----------------|-----------------|-----------------|
D|---1-1-1-1-1-1-1-|-1-1-1-1-1-1-1-1-|-1-1-1-1-1-1-1-1-|-----------------|
A|-----------------|-----------------|-----------------|-2-2-2-2-2-2-2-2~|
E|-----------------|-----------------|-----------------|-----------------|
 |
 |
 | 1 + 2 + 3 + 4 +   1 + 2 + 3 + 4 +   1 + 2 + 3 + 4 +   1 + 2 + 3 + 4 +
E|-----------------|-----------------|-----------------|-----------------|
B|-----------------|-----------------|-----------------|-----------------|
G|-----------------|-----------------|-----------------|-----------------|
D|---4-4-4-4-4-4-4-|-6-6-6-6-6-6-6-6-|-----------------|-----------------|
A|---2-2-2-2-2-2-2-|-4-4-4-4-4-4-4-4-|-6-6-6-6-6-6-6-6-|-2-2-2-2-2-2-2-2-|
E|-----------------|-----------------|-4-4-4-4-4-4-4-4-|-0-0-0-0-0-0-0-0-|
     . . . . . . .   . . . . . . . .   . . . . . . . .   . . . . . . . . 


Pre-Chorus

   1 + 2 + 3 + 4 +   1 + 2 + 3 + 4 +   1 + 2 + 3 + 4 +   1 + 2 + 3 + 4 +
E|-----------------|-----------------|-----------------|-----------------|
B|-----------------|-----------------|-----------------|-----------------|
G|-----------------|-----------------|-4-4-4-4-4-------|-----------------|
D|-2-2-2-2-2-------|-----------------|-4-4-4-4-4-------|-----------------|
A|-2-2-2-2-2-------|-----------------|-2-2-2-2-2-------|-----------------|
E|-0-0-0-0-0-------|-----------------|-----------------|-----------------|
 |
 |
 | 1 + 2 + 3 + 4 +   1 + 2 + 3 + 4 +   1 + 2 + 3 + 4 +   1 + 2 + 3 + 4 +
E|-----------------|-----------------|-----------------|-----------------|
B|-----------------|-----------------|-----------------|-----------------|
G|-----------------|-----------------|-4-4-4-4-4-------|-----------------|
D|-2-2-2-2-2-------|-----------------|-4-4-4-4-4-------|-----------------|
A|-2-2-2-2-2-------|-----------------|-2-2-2-2-2-------|-----------------|
E|-0-0-0-0-0-------|-----------------|-----------------|-----------------|


   1 + 2 + 3 + 4 +   1 + 2 + 3 + 4 +   1 + 2 + 3 + 4 +   1 + 2 + 3 + 4 +
E|-----------------|-----------------|-----------------|-----------------|
B|-----------------|-----------------|-----------------|-----------------|
G|-----------------|-----------------|-4-4-4-4-4-------|-----------------|
D|-6-6-6-6-6-------|-----------------|-4-4-4-4-4-------|-----------------|
A|-6-6-6-6-6-------|-----------------|-2-2-2-2-2-------|-----------------|
E|-4-4-4-4-4-------|-----------------|-----------------|-----------------|
 |
 |
 | 1 + 2 + 3 + 4 +   1 + 2 + 3 + 4 +   1 + 2 + 3 + 4 +   1 + 2 + 3 + 4 +
E|-----------------|-----------------|-----------------|-----------------|
B|-----------------|-----------------|-----------------|-----------------|
G|-----------------|-----------------|-----------------|-----------------|
D|-6-6-6-6-6-------|-----------------|-4-4-4-4-4-------|-----------------|
A|-6-6-6-6-6-------|-----------------|-4-4-4-4-4-------|-----------------|
E|-4-4-4-4-4-------|-----------------|-2-2-2-2-2-------|-----------------|


   1 + 2 + 3 + 4 +   1 + 2 + 3 + 4 +   1 + 2 + 3 + 4 +   
E|-----------------|-----------------|-----------------|
B|-----------------|-----------------|-----------------|
G|-----------------|-----------------|-----------------|
D|-2-2-2-2-2-2-2-2-|-2-2-2-2-2-2-2-2-|-----------------|
A|-2-2-2-2-2-2-2-2-|-2-2-2-2-2-2-2-2-|-1-1-1-1---------|
E|-0-0-0-0-0-0-0-0-|-0-0-0-0-0-0-0-0-|-t-t-t-t-2~------|
 |
 |
 | 1 + 2 + 3 + 4 +   1 + 2 + 3 + 4 +   1 + 2 + 3 + 4 +  
E|-----------------|-----------------|-----------------|
B|-----------------|-----------------|-----------------|
G|-----------------|-----------------|-----------------|
D|-2-2-2-2-2-2-2-2-|-2-2-2-2-2-2-2-2-|-----------------|
A|-2-2-2-2-2-2-2-2-|-2-2-2-2-2-2-2-2-|-----------------|
E|-0-0-0-0-0-0-0-0-|-0-0-0-0-0-0-0-0-|-----------------|


Chorus

   1 + 2 + 3 + 4 +   1 + 2 + 3 + 4 +   1 + 2 + 3 + 4 +   1 + 2 + 3 + 4 +
E|-----------------|-----------------|-----------------|-----------------|
B|-----------------|-----------------|-----------------|-----------------|
G|-4-4-4-4-4-4-4-4-|-3-3-3-3-3-3-3-3-|-----------------|-----------------|
D|-4-4-4-4-4-4-4-4-|-4-4-4-4-4-4-4-4-|-6-6-6-6-6-6-6-6-|-2-2-2-2-2-2-2-2-|
A|-2-2-2-2-2-2-2-2-|-1-1-1-1-1-1-1-1-|-6-6-6-6-6-6-6-6-|-2-2-2-2-2-2-2-2-|
E|-----------------|-----------------|-4-4-4-4-4-4-4-4-|-0-0-0-0-0-0-0-0-|
 |
 |
 | 1 + 2 + 3 + 4 +   1 + 2 + 3 + 4 +   1 + 2 + 3 + 4 +   1 + 2 + 3 + 4 +
E|-----------------|-----------------|-----------------|-----------------|
B|-----------------|-----------------|-----------------|-----------------|
G|-4-4-4-4-4-4-4-4-|-3-3-3-3-3-3-3-3-|-----------------|-----------------|
D|-4-4-4-4-4-4-4-4-|-4-4-4-4-4-4-4-4-|-6-6-6-6-6-6-6-6-|-2-2-2-2-2-2-2-2-|
A|-2-2-2-2-2-2-2-2-|-1-1-1-1-1-1-1-1-|-6-6-6-6-6-6-6-6-|-2-2-2-2-2-2-2-2-|
E|-----------------|-----------------|-4-4-4-4-4-4-4-4-|-0-0-0-0-0-0-0-0-|


   1 + 2 + 3 + 4 +   1 + 2 + 3 + 4 +   1 + 2 + 3 + 4 +   1 + 2 + 3 + 4 +
E|-----------------|-----------------|-----------------|-----------------|
B|-----------------|-----------------|-----------------|-----------------|
G|-4-4-4-4-4-4-4-4-|-3-3-3-3-3-3-3-3-|-----------------|-----------------|
D|-4-4-4-4-4-4-4-4-|-4-4-4-4-4-4-4-4-|-6-6-6-6-6-6-6-6-|-2~--------------|
A|-2-2-2-2-2-2-2-2-|-1-1-1-1-1-1-1-1-|-6-6-6-6-6-6-6-6-|-2~--------------|
E|-----------------|-----------------|-4-4-4-4-4-4-4-4-|-0~--------------|
 |
 |
 | 1 + 2 + 3 + 4 +   1 + 2 + 3 + 4 +   1 + 2 + 3 + 4 +   1 + 2 + 3 + 4 +
E|-----------------|-----------------|-----------------|-----------------|
B|-----------------|-----------------|-----------------|-----------------|
G|-4-4-4-4-4-4-4-4-|-3-3-3-3-3-3-3-3-|-----------------|-----------------|
D|-4-4-4-4-4-4-4-4-|-4-4-4-4-4-4-4-4-|-6-6-6-6-6-6-6-6-|-2~--------------|
A|-2-2-2-2-2-2-2-2-|-1-1-1-1-1-1-1-1-|-6-6-6-6-6-6-6-6-|-2~--------------|
E|-----------------|-----------------|-4-4-4-4-4-4-4-4-|-0~--------------|


Verse

   1 + 2 + 3 + 4 +   1 + 2 + 3 + 4 +   1 + 2 + 3 + 4 +   1 + 2 + 3 + 4 +
E|-----------------|-----------------|-----------------|-----------------|
B|-----------------|-----------------|-----------------|-----------------|
G|-----------------|-----------------|-----------------|-----------------|
D|---1-1-1-1-1-1-1-|-1-1-1-1-1-1-1-1-|-1-1-1-1-1-1-1-1-|-----------------|
A|-----------------|-----------------|-----------------|-2-2-2-2-2-2-2-2~|
E|-----------------|-----------------|-----------------|-----------------|
 |
 |
 | 1 + 2 + 3 + 4 +   1 + 2 + 3 + 4 +   1 + 2 + 3 + 4 +   1 + 2 + 3 + 4 +
E|-----------------|-----------------|-----------------|-----------------|
B|-----------------|-----------------|-----------------|-----------------|
G|-----------------|-----------------|-----------------|-----------------|
D|---4-4-4-4-4-4-4-|-6-6-6-6-6-6-6-6-|-----------------|-----------------|
A|---2-2-2-2-2-2-2-|-4-4-4-4-4-4-4-4-|-6-6-6-6-6-6-6-6-|-2-2-2-2-2-2-2-2-|
E|-----------------|-----------------|-4-4-4-4-4-4-4-4-|-0-0-0-0-0-0-0-0-|
     . . . . . . .   . . . . . . . .   . . . . . . . .   . . . . . . . . 


   1 + 2 + 3 + 4 +   1 + 2 + 3 + 4 +   1 + 2 + 3 + 4 +   1 + 2 + 3 + 4 +
E|-----------------|-----------------|-----------------|-----------------|
B|-----------------|-----------------|-----------------|-----------------|
G|-----------------|-----------------|-----------------|-----------------|
D|---1-1-1-1-1-1-1-|-1-1-1-1-1-1-1-1-|-1-1-1-1-1-1-1-1-|-----------------|
A|-----------------|-----------------|-----------------|-2-2-2-2-2-2-2-2~|
E|-----------------|-----------------|-----------------|-----------------|
 |
 |
 | 1 + 2 + 3 + 4 +   1 + 2 + 3 + 4 +   1 + 2 + 3 + 4 +   1 + 2 + 3 + 4 +
E|-----------------|-----------------|-----------------|-----------------|
B|-----------------|-----------------|-----------------|-----------------|
G|-----------------|-----------------|-----------------|-----------------|
D|---4-4-4-4-4-4-4-|-6-6-6-6-6-6-6-6-|-----------------|-----------------|
A|---2-2-2-2-2-2-2-|-4-4-4-4-4-4-4-4-|-6-6-6-6-6-6-6-6-|-2-2-2-2-2-2-2-2-|
E|-----------------|-----------------|-4-4-4-4-4-4-4-4-|-0-0-0-0-0-0-0-0-|
     . . . . . . .   . . . . . . . .   . . . . . . . .   . . . . . . . . 


   1 + 2 + 3 + 4 +   1 + 2 + 3 + 4 +   1 + 2 + 3 + 4 +   1 + 2 + 3 + 4 +
E|-----------------|-----------------|-----------------|-----------------|
B|-----------------|-----------------|-----------------|-----------------|
G|-----------------|-----------------|-----------------|-----------------|
D|---1-1-1-1-1-1-1-|-1-1-1-1-1-1-1-1-|-1-1-1-1-1-1-1-1-|-----------------|
A|-----------------|-----------------|-----------------|-2-2-2-2-2-2-2-2~|
E|-----------------|-----------------|-----------------|-----------------|
 |
 |
 | 1 + 2 + 3 + 4 +   1 + 2 + 3 + 4 +   1 + 2 + 3 + 4 +   1 + 2 + 3 + 4 +
E|-----------------|-----------------|-----------------|-----------------|
B|-----------------|-----------------|-----------------|-----------------|
G|-----------------|-----------------|-----------------|-----------------|
D|---4-4-4-4-4-4-4-|-6-6-6-6-6-6-6-6-|-----------------|-----------------|
A|---2-2-2-2-2-2-2-|-4-4-4-4-4-4-4-4-|-6-6-6-6-6-6-6-6-|-2-2-2-2-2-2-2-2-|
E|-----------------|-----------------|-4-4-4-4-4-4-4-4-|-0-0-0-0-0-0-0-0-|
     . . . . . . .   . . . . . . . .   . . . . . . . .   . . . . . . . . 


   1 + 2 + 3 + 4 +   1 + 2 + 3 + 4 +   1 + 2 + 3 + 4 +   1 + 2 + 3 + 4 +
E|-----------------|-----------------|-----------------|-----------------|
B|-----------------|-----------------|-----------------|-----------------|
G|-----------------|-----------------|-----------------|-----------------|
D|---1-1-1-1-1-1-1-|-1-1-1-1-1-1-1-1-|-1-1-1-1-1-1-1-1-|-----------------|
A|-----------------|-----------------|-----------------|-2-2-2-2-2-2-2-2~|
E|-----------------|-----------------|-----------------|-----------------|
 |
 |
 | 1 + 2 + 3 + 4 +   1 + 2 + 3 + 4 +   1 + 2 + 3 + 4 +   1 + 2 + 3 + 4 +
E|-----------------|-----------------|-----------------|-----------------|
B|-----------------|-----------------|-----------------|-----------------|
G|-----------------|-----------------|-----------------|-----------------|
D|---4-4-4-4-4-4-4-|-6-6-6-6-6-6-6-6-|-----------------|-----------------|
A|---2-2-2-2-2-2-2-|-4-4-4-4-4-4-4-4-|-6-6-6-6-6-6-6-6-|-2-2-2-2-2-2-2-2-|
E|-----------------|-----------------|-4-4-4-4-4-4-4-4-|-0-0-0-0-0-0-0-0-|
     . . . . . . .   . . . . . . . .   . . . . . . . .   . . . . . . . . 


Pre-Chorus

   1 + 2 + 3 + 4 +   1 + 2 + 3 + 4 +   1 + 2 + 3 + 4 +   1 + 2 + 3 + 4 +
E|-----------------|-----------------|-----------------|-----------------|
B|-----------------|-----------------|-----------------|-----------------|
G|-----------------|-----------------|-4-4-4-4-4-------|-----------------|
D|-2-2-2-2-2-------|-----------------|-4-4-4-4-4-------|-----------------|
A|-2-2-2-2-2-------|-----------------|-2-2-2-2-2-------|-----------------|
E|-0-0-0-0-0-------|-----------------|-----------------|-----------------|
 |
 |
 | 1 + 2 + 3 + 4 +   1 + 2 + 3 + 4 +   1 + 2 + 3 + 4 +   1 + 2 + 3 + 4 +
E|-----------------|-----------------|-----------------|-----------------|
B|-----------------|-----------------|-----------------|-----------------|
G|-----------------|-----------------|-4-4-4-4-4-------|-----------------|
D|-2-2-2-2-2-------|-----------------|-4-4-4-4-4-------|-----------------|
A|-2-2-2-2-2-------|-----------------|-2-2-2-2-2-------|-----------------|
E|-0-0-0-0-0-------|-----------------|-----------------|-----------------|


   1 + 2 + 3 + 4 +   1 + 2 + 3 + 4 +   1 + 2 + 3 + 4 +   1 + 2 + 3 + 4 +
E|-----------------|-----------------|-----------------|-----------------|
B|-----------------|-----------------|-----------------|-----------------|
G|-----------------|-----------------|-4-4-4-4-4-------|-----------------|
D|-6-6-6-6-6-------|-----------------|-4-4-4-4-4-------|-----------------|
A|-6-6-6-6-6-------|-----------------|-2-2-2-2-2-------|-----------------|
E|-4-4-4-4-4-------|-----------------|-----------------|-----------------|
 |
 |
 | 1 + 2 + 3 + 4 +   1 + 2 + 3 + 4 +   1 + 2 + 3 + 4 +   1 + 2 + 3 + 4 +
E|-----------------|-----------------|-----------------|-----------------|
B|-----------------|-----------------|-----------------|-----------------|
G|-----------------|-----------------|-----------------|-----------------|
D|-6-6-6-6-6-------|-----------------|-4-4-4-4-4-------|-----------------|
A|-6-6-6-6-6-------|-----------------|-4-4-4-4-4-------|-----------------|
E|-4-4-4-4-4-------|-----------------|-2-2-2-2-2-------|-----------------|


   1 + 2 + 3 + 4 +   1 + 2 + 3 + 4 +   1 + 2 + 3 + 4 +   
E|-----------------|-----------------|-----------------|
B|-----------------|-----------------|-----------------|
G|-----------------|-----------------|-----------------|
D|-2-2-2-2-2-2-2-2-|-2-2-2-2-2-2-2-2-|-----------------|
A|-2-2-2-2-2-2-2-2-|-2-2-2-2-2-2-2-2-|-1-1-1-1---------|
E|-0-0-0-0-0-0-0-0-|-0-0-0-0-0-0-0-0-|-t-t-t-t-2~------|
 |
 |
 | 1 + 2 + 3 + 4 +   1 + 2 + 3 + 4 +   1 + 2 + 3 + 4 +  
E|-----------------|-----------------|-----------------|
B|-----------------|-----------------|-----------------|
G|-----------------|-----------------|-----------------|
D|-2-2-2-2-2-2-2-2-|-2-2-2-2-2-2-2-2-|-----------------|
A|-2-2-2-2-2-2-2-2-|-2-2-2-2-2-2-2-2-|-----------------|
E|-0-0-0-0-0-0-0-0-|-0-0-0-0-0-0-0-0-|-----------------|


Chorus

   1 + 2 + 3 + 4 +   1 + 2 + 3 + 4 +   1 + 2 + 3 + 4 +   1 + 2 + 3 + 4 +
E|-----------------|-----------------|-----------------|-----------------|
B|-----------------|-----------------|-----------------|-----------------|
G|-4-4-4-4-4-4-4-4-|-3-3-3-3-3-3-3-3-|-----------------|-----------------|
D|-4-4-4-4-4-4-4-4-|-4-4-4-4-4-4-4-4-|-6-6-6-6-6-6-6-6-|-2-2-2-2-2-2-2-2-|
A|-2-2-2-2-2-2-2-2-|-1-1-1-1-1-1-1-1-|-6-6-6-6-6-6-6-6-|-2-2-2-2-2-2-2-2-|
E|-----------------|-----------------|-4-4-4-4-4-4-4-4-|-0-0-0-0-0-0-0-0-|
 |
 |
 | 1 + 2 + 3 + 4 +   1 + 2 + 3 + 4 +   1 + 2 + 3 + 4 +   1 + 2 + 3 + 4 +
E|-----------------|-----------------|-----------------|-----------------|
B|-----------------|-----------------|-----------------|-----------------|
G|-4-4-4-4-4-4-4-4-|-3-3-3-3-3-3-3-3-|-----------------|-----------------|
D|-4-4-4-4-4-4-4-4-|-4-4-4-4-4-4-4-4-|-6-6-6-6-6-6-6-6-|-2-2-2-2-2-2-2-2-|
A|-2-2-2-2-2-2-2-2-|-1-1-1-1-1-1-1-1-|-6-6-6-6-6-6-6-6-|-2-2-2-2-2-2-2-2-|
E|-----------------|-----------------|-4-4-4-4-4-4-4-4-|-0-0-0-0-0-0-0-0-|


   1 + 2 + 3 + 4 +   1 + 2 + 3 + 4 +   1 + 2 + 3 + 4 +   1 + 2 + 3 + 4 +
E|-----------------|-----------------|-----------------|-----------------|
B|-----------------|-----------------|-----------------|-----------------|
G|-4-4-4-4-4-4-4-4-|-3-3-3-3-3-3-3-3-|-----------------|-----------------|
D|-4-4-4-4-4-4-4-4-|-4-4-4-4-4-4-4-4-|-6-6-6-6-6-6-6-6-|-2-2-2-2-2-2-2-2-|
A|-2-2-2-2-2-2-2-2-|-1-1-1-1-1-1-1-1-|-6-6-6-6-6-6-6-6-|-2-2-2-2-2-2-2-2-|
E|-----------------|-----------------|-4-4-4-4-4-4-4-4-|-0-0-0-0-0-0-0-0-|
 |
 |
 | 1 + 2 + 3 + 4 +   1 + 2 + 3 + 4 +   1 + 2 + 3 + 4 +   1 + 2 + 3 + 4 +
E|-----------------|-----------------|-----------------|-----------------|
B|-----------------|-----------------|-----------------|-----------------|
G|-4-4-4-4-4-4-4-4-|-3-3-3-3-3-3-3-3-|-----------------|-----------------|
D|-4-4-4-4-4-4-4-4-|-4-4-4-4-4-4-4-4-|-6-6-6-6-6-6-6-6-|-2-2-2-2-2-2-2-2-|
A|-2-2-2-2-2-2-2-2-|-1-1-1-1-1-1-1-1-|-6-6-6-6-6-6-6-6-|-2-2-2-2-2-2-2-2-|
E|-----------------|-----------------|-4-4-4-4-4-4-4-4-|-0-0-0-0-0-0-0-0-|


   1 + 2 + 3 + 4 +   1 + 2 + 3 + 4 +   1 + 2 + 3 + 4 +   1 + 2 + 3 + 4 +
E|-----------------|-----------------|-----------------|-----------------|
B|-----------------|-----------------|-----------------|-----------------|
G|-4-4-4-4-4-4-4-4-|-3-3-3-3-3-3-3-3-|-----------------|-----------------|
D|-4-4-4-4-4-4-4-4-|-4-4-4-4-4-4-4-4-|-6-6-6-6-6-6-6-6-|-2-2-2-2-2-2-2-2-|
A|-2-2-2-2-2-2-2-2-|-1-1-1-1-1-1-1-1-|-6-6-6-6-6-6-6-6-|-2-2-2-2-2-2-2-2-|
E|-----------------|-----------------|-4-4-4-4-4-4-4-4-|-0-0-0-0-0-0-0-0-|
 |
 |
 | 1 + 2 + 3 + 4 +   1 + 2 + 3 + 4 +   1 + 2 + 3 + 4 +   1 + 2 + 3 + 4 +
E|-----------------|-----------------|-----------------|-----------------|
B|-----------------|-----------------|-----------------|-----------------|
G|-4-4-4-4-4-4-4-4-|-3-3-3-3-3-3-3-3-|-----------------|-----------------|
D|-4-4-4-4-4-4-4-4-|-4-4-4-4-4-4-4-4-|-6-6-6-6-6-6-6-6-|-2-2-2-2-2-2-2-2-|
A|-2-2-2-2-2-2-2-2-|-1-1-1-1-1-1-1-1-|-6-6-6-6-6-6-6-6-|-2-2-2-2-2-2-2-2-|
E|-----------------|-----------------|-4-4-4-4-4-4-4-4-|-0-0-0-0-0-0-0-0-|


   1 + 2 + 3 + 4 +   1 + 2 + 3 + 4 +   1 + 2 + 3 + 4 +   1 + 2 + 3 + 4 +
E|-----------------|-----------------|-----------------|-----------------|
B|-----------------|-----------------|-----------------|-----------------|
G|-4-4-4-4-4-4-4-4-|-3-3-3-3-3-3-3-3-|-----------------|-----------------|
D|-4-4-4-4-4-4-4-4-|-4-4-4-4-4-4-4-4-|-6-6-6-6-6-6-6-6-|-2~--------------|
A|-2-2-2-2-2-2-2-2-|-1-1-1-1-1-1-1-1-|-6-6-6-6-6-6-6-6-|-2~--------------|
E|-----------------|-----------------|-4-4-4-4-4-4-4-4-|-0~--------------|
 |
 |
 | 1 + 2 + 3 + 4 +   1 + 2 + 3 + 4 +   1 + 2 + 3 + 4 +   1 + 2 + 3 + 4 +
E|-----------------|-----------------|-----------------|-----------------|
B|-----------------|-----------------|-----------------|-----------------|
G|-4-4-4-4-4-4-4-4-|-3-3-3-3-3-3-3-3-|-----------------|-----------------|
D|-4-4-4-4-4-4-4-4-|-4-4-4-4-4-4-4-4-|-6-6-6-6-6-6-6-6-|-2~--------------|
A|-2-2-2-2-2-2-2-2-|-1-1-1-1-1-1-1-1-|-6-6-6-6-6-6-6-6-|-2~--------------|
E|-----------------|-----------------|-4-4-4-4-4-4-4-4-|-0~--------------|


Bridge

   1 + 2 + 3 + 4 +   1 + 2 + 3 + 4 +   1 + 2 + 3 + 4 +   1 + 2 + 3 + 4 +
E|-----------------|-----------------|-----------------|-----------------|
B|-----------------|-----------------|-----------------|-----------------|
G|-----------------|-----------------|-----------------|-----------------|
D|-4---4---2---2---|-1---1---2---2---|-4---4---2---2---|-1---1---2---2---|
A|-2---2---4---4---|-2---2---2---2---|-2---2---4---4---|-2---2---2---2---|
E|-----------------|-----------------|-----------------|-----------------|
 |
 |
 | 1 + 2 + 3 + 4 +   1 + 2 + 3 + 4 +   1 + 2 + 3 + 4 +   1 + 2 + 3 + 4 +
E|-----------------|-----------------|-----------------|-----------------|
B|-----------------|-----------------|-----------------|-----------------|
G|-----------------|-----------------|-----------------|-----------------|
D|-----------------|-----------------|-----------------|-----------------|
A|-2~--------------|-----------------|-----------------|-----------------|
E|-----------------|-----------------|-----------------|-----------------|


   1 + 2 + 3 + 4 +   1 + 2 + 3 + 4 +   1 + 2 + 3 + 4 +   1 + 2 + 3 + 4 +
E|-----------------|-----------------|-----------------|-----------------|
B|-----------------|-----------------|-----------------|-----------------|
G|-----------------|-----------------|-----------------|-----------------|
D|-4---4---2---2---|-1---1---2---2---|-4---4---2---2---|-1---1---2---2---|
A|-2---2---4---4---|-2---2---2---2---|-2---2---4---4---|-2---2---2---2---|
E|-----------------|-----------------|-----------------|-----------------|
 |
 |
 | 1 + 2 + 3 + 4 +   1 + 2 + 3 + 4 +   1 + 2 + 3 + 4 +   1 + 2 + 3 + 4 +
E|-----------------|-----------------|-----------------|-----------------|
B|-----------------|-----------------|-----------------|-----------------|
G|-----------------|-----------------|-----------------|-----------------|
D|-----------------|-----------------|-----------------|-----------------|
A|-----------------|-----------------|-----------------|--(swell volume-)|
E|-----------------|-----------------|-----------------|-----------------|


   1 + 2 + 3 + 4 +   1 + 2 + 3 + 4 +   1 + 2 + 3 + 4 +   1 + 2 + 3 + 4 +
E|-----------------|-----------------|-----------------|-----------------|
B|-----------------|-----------------|-----------------|-----------------|
G|-----------------|-----------------|-----------------|-----------------|
D|-4-4-4-4-4-4-4-4-|-6-6-6-6-6-6-6-6-|-8-8-8-8-8-8-8-8-|-----------------|
A|-2-2-2-2-2-2-2-2-|-4-4-4-4-4-4-4-4-|-6-6-6-6-6-6-6-6-|-2-2-2-2-2-2-2-2-|
E|-----------------|-----------------|-----------------|-0-0-0-0-0-0-0-0-|
 | . . . . . . . .   . . . . . . . .   . . . . . . . .   . . . . . . . .
 |
 | 1 + 2 + 3 + 4 +   1 + 2 + 3 + 4 +   1 + 2 + 3 + 4 +   1 + 2 + 3 + 4 +
E|-----------------|-----------------|-----------------|-----------------|
B|-----------------|-----------------|-----------------|-----------------|
G|-----------------|-----------------|-----------------|-------8-8-8-8-8-|
D|-4-4-4-4-4-4-4-4-|-6-6-6-6-6-6-6-6-|-8-8-8-8-8-8-8-8-|-------x-x-x-x-x-|
A|-2-2-2-2-2-2-2-2-|-4-4-4-4-4-4-4-4-|-6-6-6-6-6-6-6-6-|-2-2-2-6-6-6-6-6-|
E|-----------------|-----------------|-----------------|-0-0-0-----------|
   . . . . . . . .   . . . . . . . .   . . . . . . . .   . . .           


   1 + 2 + 3 + 4 +   1 + 2 + 3 + 4 +   1 + 2 + 3 + 4 +   1 + 2 + 3 + 4 +
E|-----------------|-----------------|-----------------|-----------------|
B|-----------------|-----------------|-----------------|-----------------|
G|-----------------|-----------------|-----------------|-----------------|
D|-4-4-4-4-4-4-4-4-|-6-6-6-6-6-6-6-6-|-8-8-8-8-8-8-8-8-|-----------------|
A|-2-2-2-2-2-2-2-2-|-4-4-4-4-4-4-4-4-|-6-6-6-6-6-6-6-6-|-2-2-2-2-2-2-2-2-|
E|-----------------|-----------------|-----------------|-0-0-0-0-0-0-0-0-|
 | . . . . . . . .   . . . . . . . .   . . . . . . . .   . . . . . . . .
 |
 | 1 + 2 + 3 + 4 +   1 + 2 + 3 + 4 +   1 + 2 + 3 + 4 +   1 + 2 + 3 + 4 +
E|-----------------|-----------------|-----------------|-----------------|
B|-----------------|-----------------|-----------------|-----------------|
G|-----------------|-----------------|-----------------|-------8-8-8-8-8-|
D|-4-4-4-4-4-4-4-4-|-6-6-6-6-6-6-6-6-|-8-8-8-8-8-8-8-8-|-------x-x-x-x-x-|
A|-2-2-2-2-2-2-2-2-|-4-4-4-4-4-4-4-4-|-6-6-6-6-6-6-6-6-|-2-2-2-6-6-6-6-6-|
E|-----------------|-----------------|-----------------|-0-0-0-----------|
   . . . . . . . .   . . . . . . . .   . . . . . . . .   . . .  


   1 + 2 + 3 + 4 +   1 + 2 + 3 + 4 +   1 + 2 + 3 + 4 +   1 + 2 + 3 + 4 +
E|-----------------|-----------------|-----------------|-----------------|
B|-----------------|-----------------|-----------------|-----------------|
G|-4-4-4-4-4-4-4-4-|-3-3-3-3-3-3-3-3-|-8-8-8-8-8-8-8-8-|-6-6-6-4-4-4-6-6-|
D|-x-x-x-x-x-x-x-x-|-x-x-x-x-x-x-x-x-|-x-x-x-x-x-x-x-x-|-x-x-x-x-x-x-x-x-|
A|-2-2-2-2-2-2-2-2-|-1-1-1-1-1-1-1-1-|-6-6-6-6-6-6-6-6-|-4-4-4-2-2-2-4-4-|
E|-----------------|-----------------|-----------------|-----------------|
 |
 |
 | 1 + 2 + 3 + 4 +   1 + 2 + 3 + 4 +   1 + 2 + 3 + 4 +   1 + 2 + 3 + 4 +
E|-----------------|-----------------|-----------------|-----------------|
B|-----------------|-----------------|-----------------|-----------------|
G|-4-4-4-4-4-4-4-4-|-3-3-3-3-3-3-3-3-|-----------------|-----------------|
D|-4-4-4-4-4-4-4-4-|-4-4-4-4-4-4-4-4-|-6-6-6-6-6-6-6-6-|-2-2-2-2-2-2-2-2-|
A|-2-2-2-2-2-2-2-2-|-1-1-1-1-1-1-1-1-|-6-6-6-6-6-6-6-6-|-2-2-2-2-2-2-2-2-|
E|-----------------|-----------------|-4-4-4-4-4-4-4-4-|-0-0-0-0-0-0-0-0-|


E|-----------------|-----------------|-----------------|-----------------|
B|-----------------|-----------------|-----------------|-----------------|
G|-4-4-4-4-4-4-4-4-|-3-3-3-3-3-3-3-3-|-8-8-8-8-8-8-8-8-|-6-6-6-6-6-6-6-6-|
D|-x-x-x-x-x-x-x-x-|-x-x-x-x-x-x-x-x-|-x-x-x-x-x-x-x-x-|-x-x-x-x-x-x-x-x-|
A|-2-2-2-2-2-2-2-2-|-1-1-1-1-1-1-1-1-|-6-6-6-6-6-6-6-6-|-4-4-4-4-4-4-4-4-|
E|-----------------|-----------------|-----------------|-----------------|
 |
 |
 | 1 + 2 + 3 + 4 +   1 + 2 + 3 + 4 +   1 + 2 + 3 + 4 +   1 + 2 + 3 + 4 +
E|-----------------|-----------------|-----------------|-----------------|
B|-----------------|-----------------|-----------------|-----------------|
G|-4-4-4-4-4-4-4-4-|-3-3-3-3-3-3-3-3-|-----------------|-----------------|
D|-4-4-4-4-4-4-4-4-|-4-4-4-4-4-4-4-4-|-6-6-6-6-6-6-6-6-|-2-2-2-2-2-2-2-2-|
A|-2-2-2-2-2-2-2-2-|-1-1-1-1-1-1-1-1-|-6-6-6-6-6-6-6-6-|-2-2-2-2-2-2-2-2-|
E|-----------------|-----------------|-4-4-4-4-4-4-4-4-|-0-0-0-0-0-0-0-0-|


   1 + 2 + 3 + 4 +   1 + 2 + 3 + 4 +   1 + 2 + 3 + 4 +   1 + 2 + 3 + 4 +
E|-----------------|-----------------|-----------------|-----------------|
B|-----------------|-----------------|-----------------|-----------------|
G|-8---8---8-8---8~|-----8---8-8---8~|-----8---8-8---4~|---4-4-4-4-4-4-4-|
D|-x---x---x-x---x~|-----x---x-x---x~|-----x---x-x---x~|---x-x-x-x-x-x-x-|
A|-6---6---6-6---6~|-----6---6-6---6~|-----6---6-6---2~|---2-2-2-2-2-2-2-|
E|-----------------|-----------------|-----------------|-----------------|
 |
 |
 | 1 + 2 + 3 + 4 +   1 + 2 + 3 + 4 +   1 + 2 + 3 + 4 +   1 + 2 + 3 + 4 +
E|-----------------|-----------------|-----------------|-----------------|
B|-----------------|-----------------|-----------------|-----------------|
G|-----------------|-----------------|-----------------|-----------------|
D|-4---4---4-6---3~|----3----3-4-----|-----------------|-----------------|
A|-2---2---2-4---1~|----1----1-2---6~|-----6---6-6---2~|---2-2-2-2-2-2-2-|
E|-----------------|---------------4~|-----4---4-4---0~|---0-0-0-0-0-0-0-|


   1 + 2 + 3 + 4 +   1 + 2 + 3 + 4 +   1 + 2 + 3 + 4 +   1 + 2 + 3 + 4 +
E|-----------------|-----------------|-----------------|-----------------|
B|-----------------|-----------------|-----------------|-----------------|
G|-8---8---8-8---8~|-----8---8-8---8~|-----8---8-8---4~|---4-4-4-4-4-4-4-|
D|-x---x---x-x---x~|-----x---x-x---x~|-----x---x-x---x~|---x-x-x-x-x-x-x-|
A|-6---6---6-6---6~|-----6---6-6---6~|-----6---6-6---2~|---2-2-2-2-2-2-2-|
E|-----------------|-----------------|-----------------|-----------------|
 |
 |
 | 1 + 2 + 3 + 4 +   1 + 2 + 3 + 4 +   1 + 2 + 3 + 4 +   1 + 2 + 3 + 4 +
E|-----------------|-----------------|-----------------|-----------------|
B|-----------------|-----------------|-----------------|-----------------|
G|-----------------|-----------------|-----------------|-----------------|
D|-4---4---4-6---3~|----3----3-4-----|-----------------|-----------------|
A|-2---2---2-4---1~|----1----1-2---6~|-----6---6-6---2~|---2-2-2-2-2-2-2-|
E|-----------------|---------------4~|-----4---4-4---0~|---0-0-0-0-0-0-0-|


   1 + 2 + 3 + 4 +   1 + 2 + 3 + 4 +  
E|-----------------|-----------------|
B|-----------------|-----------------|
G|-----------------|-----------------|
D|-----------------|-----------------|
A|-4-4-4-4-4-4-4-4-|-4-4-4-4-4-4-4-4-|
E|-2-2-2-2-2-2-2-2-|-2-2-2-2-2-2-2-2-|
 | . . . . . . . .   . . . . . . . .
 |
 | 1 + 2 + 3 + 4 +   1 + 2 + 3 + 4 +  
E|-----------------|-----------------|
B|-----------------|-----------------|
G|-----------------|-----------------|
D|-----------------|-----------------|
A|-4-4-4-4-4-4-4-4-|-4-4-4-4-4-4-4-4-|
E|-2-2-2-2-2-2-2-2-|-2-2-2-2-2-2-2-2-|
   . . . . . . . .   . . . . . . . . 


Chorus

   1 + 2 + 3 + 4 +   1 + 2 + 3 + 4 +   1 + 2 + 3 + 4 +   1 + 2 + 3 + 4 +
E|-----------------|-----------------|-----------------|-----------------|
B|-----------------|-----------------|-----------------|-----------------|
G|-4-4-4-4-4-4-4-4-|-3-3-3-3-3-3-3-3-|-----------------|-----------------|
D|-4-4-4-4-4-4-4-4-|-4-4-4-4-4-4-4-4-|-6-6-6-6-6-6-6-6-|-2-2-2-2-2-2-2-2-|
A|-2-2-2-2-2-2-2-2-|-1-1-1-1-1-1-1-1-|-6-6-6-6-6-6-6-6-|-2-2-2-2-2-2-2-2-|
E|-----------------|-----------------|-4-4-4-4-4-4-4-4-|-0-0-0-0-0-0-0-0-|
 |
 |
 | 1 + 2 + 3 + 4 +   1 + 2 + 3 + 4 +   1 + 2 + 3 + 4 +   1 + 2 + 3 + 4 +
E|-----------------|-----------------|-----------------|-----------------|
B|-----------------|-----------------|-----------------|-----------------|
G|-4-4-4-4-4-4-4-4-|-3-3-3-3-3-3-3-3-|-----------------|-----------------|
D|-4-4-4-4-4-4-4-4-|-4-4-4-4-4-4-4-4-|-6-6-6-6-6-6-6-6-|-2-2-2-2-2-2-2-2-|
A|-2-2-2-2-2-2-2-2-|-1-1-1-1-1-1-1-1-|-6-6-6-6-6-6-6-6-|-2-2-2-2-2-2-2-2-|
E|-----------------|-----------------|-4-4-4-4-4-4-4-4-|-0-0-0-0-0-0-0-0-|


   1 + 2 + 3 + 4 +   1 + 2 + 3 + 4 +   1 + 2 + 3 + 4 +   1 + 2 + 3 + 4 +
E|-----------------|-----------------|-----------------|-----------------|
B|-----------------|-----------------|-----------------|-----------------|
G|-4-4-4-4-4-4-4-4-|-3-3-3-3-3-3-3-3-|-----------------|-----------------|
D|-4-4-4-4-4-4-4-4-|-4-4-4-4-4-4-4-4-|-6-6-6-6-6-6-6-6-|-2-2-2-2-2-2-2-2-|
A|-2-2-2-2-2-2-2-2-|-1-1-1-1-1-1-1-1-|-6-6-6-6-6-6-6-6-|-2-2-2-2-2-2-2-2-|
E|-----------------|-----------------|-4-4-4-4-4-4-4-4-|-0-0-0-0-0-0-0-0-|
 |
 |
 | 1 + 2 + 3 + 4 +   1 + 2 + 3 + 4 +   1 + 2 + 3 + 4 +   1 + 2 + 3 + 4 +
E|-----------------|-----------------|-----------------|-----------------|
B|-----------------|-----------------|-----------------|-----------------|
G|-4-4-4-4-4-4-4-4-|-3-3-3-3-3-3-3-3-|-----------------|-----------------|
D|-4-4-4-4-4-4-4-4-|-4-4-4-4-4-4-4-4-|-6-6-6-6-6-6-6-6-|-2-2-2-2-2-2-2-2-|
A|-2-2-2-2-2-2-2-2-|-1-1-1-1-1-1-1-1-|-6-6-6-6-6-6-6-6-|-2-2-2-2-2-2-2-2-|
E|-----------------|-----------------|-4-4-4-4-4-4-4-4-|-0-0-0-0-0-0-0-0-|


   1 + 2 + 3 + 4 +   1 + 2 + 3 + 4 +   1 + 2 + 3 + 4 +   1 + 2 + 3 + 4 +
E|-----------------|-----------------|-----------------|-----------------|
B|-----------------|-----------------|-----------------|-----------------|
G|-8---8---8-8-8-8-|-8---8---8-8-8-8-|-8---8---8-8-8-8-|-4---4---4-4-4-4-|
D|-x---x---x-x-x-x-|-x---x---x-x-x-x-|-x---x---x-x-x-x-|-x---x---x-x-x-x-|
A|-6---6---6-6-6-6-|-6---6---6-6-6-6-|-6---6---6-6-6-6-|-2---2---2-2-2-2-|
E|-----------------|-----------------|-----------------|-----------------|
 |
 |
 | 1 + 2 + 3 + 4 +   1 + 2 + 3 + 4 +   1 + 2 + 3 + 4 +   1 + 2 + 3 + 4 +
E|-----------------|-----------------|-----------------|-----------------|
B|-----------------|-----------------|-----------------|-----------------|
G|-4---4---4-4-4-4-|-3---3---3-3-3-3-|-----------------|-----------------|
D|-4---4---4-4-4-4-|-4---4---4-4-4-4-|-6---6---6-6-6-6-|-2---2---2-2-2-2-|
A|-2---2---2-2-2-2-|-1---1---1-1-1-1-|-6---6---6-6-6-6-|-2---2---2-2-2-2-|
E|-----------------|-----------------|-4---4---4-4-4-4-|-0---0---0-0-0-0-|


   1 + 2 + 3 + 4 +   1 + 2 + 3 + 4 +   1 + 2 + 3 + 4 +   1 + 2 + 3 + 4 +
E|-----------------|-----------------|-----------------|-----------------|
B|-----------------|-----------------|-----------------|-----------------|
G|-8---8---8-8-8-8-|-8---8---8-8-8-8-|-8---8---8-8-8-8-|-4~--------------|
D|-x---x---x-x-x-x-|-x---x---x-x-x-x-|-x---x---x-x-x-x-|-x~--------------|
A|-6---6---6-6-6-6-|-6---6---6-6-6-6-|-6---6---6-6-6-6-|-2~--------------|
E|-----------------|-----------------|-----------------|-----------------|
 |
 |
 | 1 + 2 + 3 + 4 +   1 + 2 + 3 + 4 +   1 + 2 + 3 + 4 +   1 + 2 + 3 + 4 +
E|-----------------|-----------------|-----------------|-----------------|
B|-----------------|-----------------|-----------------|-----------------|
G|-4---4---4-4-4-4-|-3---3---3-3-3-3-|-----------------|-----------------|
D|-4---4---4-4-4-4-|-4---4---4-4-4-4-|-6---6---6-6-6-6-|-2~--------------|
A|-2---2---2-2-2-2-|-1---1---1-1-1-1-|-6---6---6-6-6-6-|-2~--------------|
E|-----------------|-----------------|-4---4---4-4-4-4-|-0~--------------|


there you go... if you have any comments or questions you can e-mail me at
killinginthename247@yahoo.com. enjoy!
comments
print report bad tab
1 comment total.
0 reply
blinx_182x wrote on December 1 2005, 07:16 am

intro is a chord

I want to post or [tab]
guest
You may want to rate the tab now too:
select rating
Please do not post tabs as comments. Select "correction" instead!