Oops, an error
Loading. Please wait.

Please Take Me Home Tab

ver6
ver6
More versions @911Tabs.com
16,292 views 36 this week
3 commentsread comments
1 2 3 4 5
excellent!
x 7
Autoscroll
+/-
esc
set tempo
stop
Contributor
Difficulty
novice
WARNING: You are trying to view
                                    content from Ultimate-Guitar.com
                                    in an unauthorized application,
                                    which is prohibited.

                                    Please use an official Ultimate
                                    Guitar Tabs application for iPhone,
                                    iPad or Android to access legitimate
                                    chords, guitar, bass, and drum tabs
                                    from Ultimate-Guitar.com database.

                                    Type "ultimate guitar tabs" in Apple
                                    App Store's or Android Market's
                                    search to find the application.
PLEASE TAKE ME HOME
As recorded by Blink 182
(From the 2001 Album TAKE OFF YOUR PANTS AND JACKET)


C#5
x 4 6 x x x 

B5
x 2 4 4 x x 

F#/Bb
x 1 4 x x x

 G#5
4 6 6 x x x 

E5
0 2 2 x x x 


Gtr I (E A D G B E) 
Gtr II (E A D G B E)
Gtr III (E A D G B E) 


 Intro
  Moderate Rock Q=101
         B
 1/4    4/4
  Gtr I
  E E    S S S S S S S S S S S S S S S S   S S S S S S S S  S S S S S S S S
|------|---------------------------------|-----------------------------------|
|------|---------------------------------|-----------------------------------|
|---3/-|-8-8-8-8-8-8-8-8-8-8-8-8-8-8-8-8-|-8-8-8-8-8-8-8-8\-4-4-4-4-4-4-4-4--|
|---x--|-x-x-x-x-x-x-x-x-x-x-x-x-x-x-x-x-|-x-x-x-x-x-x-x-x--x-x-x-x-x-x-x-x--|
|---1/-|-6-6-6-6-6-6-6-6-6-6-6-6-6-6-6-6-|-6-6-6-6-6-6-6-6\-2-2-2-2-2-2-2-2--|
|------|-7-7-7-7-7-7-7-7-7-7-7-7-7-7-7-7-|-7-7-7-7-7-7-7-7-------------------|


  +S   S S S S S S S S S S S S S S S   S S S S S S S S  S S S S S S S S
|------------------------------------|----------------------------------||
|------------------------------------|----------------------------------||
|-(4)-/8-8-8-8-8-8-8-8-8-8-8-8-8-8-8-|-8-8-8-8-8-8-8-8\-4-4-4-4-4-4-4-4-||
|------x-x-x-x-x-x-x-x-x-x-x-x-x-x-x-|-x-x-x-x-x-x-x-x--x-x-x-x-x-x-x-x-||
|-(2)-/6-6-6-6-6-6-6-6-6-6-6-6-6-6-6-|-6-6-6-6-6-6-6-6\-2-2-2-2-2-2-2-2-||
|-----/7-7-7-7-7-7-7-7-7-7-7-7-7-7-7-|-7-7-7-7-7-7-7-7------------------||


 Verse
      B5             C#5               G#5              E5
  +S   S S S S S S S S S S S S S S S   S S S S S S S S  S S S S S S S S
|------------------------------------|----------------------------------|
|------------------------------------|----------------------------------|
|-(4)-/8-8-8-8-8-8-8-8-8-8-8-8-8-8-8-|-8-8-8-8-8-8-8-8\-4-4-4-4-4-4-4-4-|
|------x-x-x-x-x-x-x-x-x-x-x-x-x-x-x-|-x-x-x-x-x-x-x-x--x-x-x-x-x-x-x-x-|
|-(2)-/6-6-6-6-6-6-6-6-6-6-6-6-6-6-6-|-6-6-6-6-6-6-6-6\-2-2-2-2-2-2-2-2-|
|-----/7-7-7-7-7-7-7-7-7-7-7-7-7-7-7-|-7-7-7-7-7-7-7-7------------------|
|
|     Gtrs II, III
|      PM-------------------------------------------------------------|
|  S   S S S S S S S S S S S S S S S   S S S S S S S S  S S S S S S S S
|------------------------------------|----------------------------------|
|------------------------------------|----------------------------------|
|------------------------------------|----------------------------------|
|------4-4-4-4-4-4-4-6-6-6-6-6-6-6-6-|----------------------------------|
|------2-2-2-2-2-2-2-4-4-4-4-4-4-4-4-|-6-6-6-6-6-6-6-6--2-2-2-2-2-2-2-2-|
|------------------------------------|-4-4-4-4-4-4-4-4--0-0-0-0-0-0-0-0-|


      B5             C#5               G#5              E5
  +S   S S S S S S S S S S S S S S S   S S S S S S S S  S S S S S S S S
|------------------------------------|----------------------------------|
|------------------------------------|----------------------------------|
|-(4)-/8-8-8-8-8-8-8-8-8-8-8-8-8-8-8-|-8-8-8-8-8-8-8-8\-4-4-4-4-4-4-4-4-|
|------x-x-x-x-x-x-x-x-x-x-x-x-x-x-x-|-x-x-x-x-x-x-x-x--x-x-x-x-x-x-x-x-|
|-(2)-/6-6-6-6-6-6-6-6-6-6-6-6-6-6-6-|-6-6-6-6-6-6-6-6\-2-2-2-2-2-2-2-2-|
|-----/7-7-7-7-7-7-7-7-7-7-7-7-7-7-7-|-7-7-7-7-7-7-7-7------------------|
|
|      PM-------------------------------------------------------------|
|  S   S S S S S S S S S S S S S S S   S S S S S S S S  S S S S S S S S
|------------------------------------|----------------------------------|
|------------------------------------|----------------------------------|
|------------------------------------|----------------------------------|
|------4-4-4-4-4-4-4-6-6-6-6-6-6-6-6-|----------------------------------|
|------2-2-2-2-2-2-2-4-4-4-4-4-4-4-4-|-6-6-6-6-6-6-6-6--2-2-2-2-2-2-2-2-|
|------------------------------------|-4-4-4-4-4-4-4-4--0-0-0-0-0-0-0-0-|


      B5             C#5               G#5              E5
  +S   S S S S S S S S S S S S S S S   S S S S S S S S  S S S S S S S S
|------------------------------------|----------------------------------|
|------------------------------------|----------------------------------|
|-(4)-/8-8-8-8-8-8-8-8-8-8-8-8-8-8-8-|-8-8-8-8-8-8-8-8\-4-4-4-4-4-4-4-4-|
|------x-x-x-x-x-x-x-x-x-x-x-x-x-x-x-|-x-x-x-x-x-x-x-x--x-x-x-x-x-x-x-x-|
|-(2)-/6-6-6-6-6-6-6-6-6-6-6-6-6-6-6-|-6-6-6-6-6-6-6-6\-2-2-2-2-2-2-2-2-|
|-----/7-7-7-7-7-7-7-7-7-7-7-7-7-7-7-|-7-7-7-7-7-7-7-7------------------|
|
|      PM-------------------------------------------------------------|
|  S   S S S S S S S S S S S S S S S   S S S S S S S S  S S S S S S S S
|------------------------------------|----------------------------------|
|------------------------------------|----------------------------------|
|------------------------------------|----------------------------------|
|------4-4-4-4-4-4-4-6-6-6-6-6-6-6-6-|----------------------------------|
|------2-2-2-2-2-2-2-4-4-4-4-4-4-4-4-|-6-6-6-6-6-6-6-6--2-2-2-2-2-2-2-2-|
|------------------------------------|-4-4-4-4-4-4-4-4--0-0-0-0-0-0-0-0-|


      B5             C#5               G#5              E5
  +S   S S S S S S S S S S S S S S S   S S S S S S S S  S S S S S S S S
|------------------------------------|----------------------------------||
|------------------------------------|----------------------------------||
|-(4)-/8-8-8-8-8-8-8-8-8-8-8-8-8-8-8-|-8-8-8-8-8-8-8-8\-4-4-4-4-4-4-4-4-||
|------x-x-x-x-x-x-x-x-x-x-x-x-x-x-x-|-x-x-x-x-x-x-x-x--x-x-x-x-x-x-x-x-||
|-(2)-/6-6-6-6-6-6-6-6-6-6-6-6-6-6-6-|-6-6-6-6-6-6-6-6\-2-2-2-2-2-2-2-2-||
|-----/7-7-7-7-7-7-7-7-7-7-7-7-7-7-7-|-7-7-7-7-7-7-7-7------------------||
|
|      PM-------------------------------------------------------------|
|  S   S S S S S S S S S S S S S S S   S S S S S S S S  S S S S S S S S
|------------------------------------|----------------------------------||
|------------------------------------|----------------------------------||
|------------------------------------|----------------------------------||
|------4-4-4-4-4-4-4-6-6-6-6-6-6-6-6-|----------------------------------||
|------2-2-2-2-2-2-2-4-4-4-4-4-4-4-4-|-6-6-6-6-6-6-6-6--2-2-2-2-2-2-2-2-||
|------------------------------------|-4-4-4-4-4-4-4-4--0-0-0-0-0-0-0-0-||


 Pre-Chorus
  $
  E5                 B5                 G#5                F#5
  Gtrs II, III
  S S S S E E H      S S S S E E H      S S S S E E H      S S S S E E H
|------------------|------------------|------------------|------------------|
|------------------|------------------|------------------|------------------|
|------------------|-4-4-4-4-4--------|------------------|------------------|
|-2-2-2-2-2--------|-4-4-4-4-4--------|-6-6-6-6-6--------|-4-4-4-4-4--------|
|-2-2-2-2-2--------|-2-2-2-2-2--------|-6-6-6-6-6--------|-4-4-4-4-4--------|
|-0-0-0-0-0--------|------------------|-4-4-4-4-4--------|-2-2-2-2-2--------|


  E5                                F#/A#
  Gtr II
  S S S S S S S S S S S S S S S S   S S S S S S S S H
|---------------------------------|----------------------||
|---------------------------------|----------------------||
|---------------------------------|-3-3-3-3-3-3-3-3------||
|-2-2-2-2-2-2-2-2-2-2-2-2-2-2-2-2-|-3-3-3-3-3-3-3-3------||
|-2-2-2-2-2-2-2-2-2-2-2-2-2-2-2-2-|-1-1-1-1-1-1-1-1------||
|-0-0-0-0-0-0-0-0-0-0-0-0-0-0-0-0-|-----------------2----||
|
| Gtr III
| S S S S S S S S S S S S S S S S   S S S S S S S S H
|---------------------------------|----------------------||
|---------------------------------|----------------------||
|---------------------------------|----------------------||
|-2-2-2-2-2-2-2-2-2-2-2-2-2-2-2-2-|-4-4-4-4-4-4-4-4-4----||
|-2-2-2-2-2-2-2-2-2-2-2-2-2-2-2-2-|-x-x-x-x-x-x-x-x-x----||
|-0-0-0-0-0-0-0-0-0-0-0-0-0-0-0-0-|-2-2-2-2-2-2-2-2-2----||


 Chorus
  B5              F#/Bb             G#5             E5
  Gtrs II, III
  S S S S S S S S S S S S S S S S   S S S S S S S S S S S S S S S S
|---------------------------------|---------------------------------|
|---------------------------------|---------------------------------|
|-4-4-4-4-4-4-4-4-----------------|---------------------------------|
|-4-4-4-4-4-4-4-4-4-4-4-4-4-4-4-4-|-6-6-6-6-6-6-6-6-2-2-2-2-2-2-2-2-|
|-2-2-2-2-2-2-2-2-1-1-1-1-1-1-1-1-|-6-6-6-6-6-6-6-6-2-2-2-2-2-2-2-2-|
|---------------------------------|-4-4-4-4-4-4-4-4-0-0-0-0-0-0-0-0-|


                         To Coda
  B5              F#/Bb             G#5           E5
  S S S S S S S S S S S S S S S S   S S S S S S S S +H
|---------------------------------|------------------------||
|---------------------------------|------------------------||
|-4-4-4-4-4-4-4-4-----------------|------------------------||
|-4-4-4-4-4-4-4-4-4-4-4-4-4-4-4-4-|-6-6-6-6-6-6-6-2-(2)----||
|-2-2-2-2-2-2-2-2-1-1-1-1-1-1-1-1-|-6-6-6-6-6-6-6-2-(2)----||
|---------------------------------|-4-4-4-4-4-4-4-0-(0)----||


 Verse
      B5          C#5               G#5              E5
  Gtr I
   E  S S S S S S S S S S S S S S   S S S S S S S S  S S S S S S S S
|---------------------------------|----------------------------------|
|---------------------------------|----------------------------------|
|-----8-8-8-8-8-8-8-8-8-8-8-8-8-8-|-8-8-8-8-8-8-8-8\-4-4-4-4-4-4-4-4-|
|-----x-x-x-x-x-x-x-x-x-x-x-x-x-x-|-x-x-x-x-x-x-x-x--x-x-x-x-x-x-x-x-|
|-----6-6-6-6-6-6-6-6-6-6-6-6-6-6-|-6-6-6-6-6-6-6-6\-2-2-2-2-2-2-2-2-|
|-----7-7-7-7-7-7-7-7-7-7-7-7-7-7-|-7-7-7-7-7-7-7-7------------------|
|
| Gtrs II, III
|     PM-----------------------------------------------------------|
| +E  S S S S S S S S S S S S S S   S S S S S S S S  S S S S S S S S
|---------------------------------|----------------------------------|
|---------------------------------|----------------------------------|
|---------------------------------|----------------------------------|
|-(2)-4-4-4-4-4-4-6-6-6-6-6-6-6-6-|----------------------------------|
|-(2)-2-2-2-2-2-2-4-4-4-4-4-4-4-4-|-6-6-6-6-6-6-6-6--2-2-2-2-2-2-2-2-|
|-(0)-----------------------------|-4-4-4-4-4-4-4-4--0-0-0-0-0-0-0-0-|


      B5             C#5               G#5              E5
  +S   S S S S S S S S S S S S S S S   S S S S S S S S  S S S S S S S S
|------------------------------------|----------------------------------|
|------------------------------------|----------------------------------|
|-(4)-/8-8-8-8-8-8-8-8-8-8-8-8-8-8-8-|-8-8-8-8-8-8-8-8\-4-4-4-4-4-4-4-4-|
|------x-x-x-x-x-x-x-x-x-x-x-x-x-x-x-|-x-x-x-x-x-x-x-x--x-x-x-x-x-x-x-x-|
|-(2)-/6-6-6-6-6-6-6-6-6-6-6-6-6-6-6-|-6-6-6-6-6-6-6-6\-2-2-2-2-2-2-2-2-|
|-----/7-7-7-7-7-7-7-7-7-7-7-7-7-7-7-|-7-7-7-7-7-7-7-7------------------|
|
|      PM-------------------------------------------------------------|
|  S   S S S S S S S S S S S S S S S   S S S S S S S S  S S S S S S S S
|------------------------------------|----------------------------------|
|------------------------------------|----------------------------------|
|------------------------------------|----------------------------------|
|------4-4-4-4-4-4-4-6-6-6-6-6-6-6-6-|----------------------------------|
|------2-2-2-2-2-2-2-4-4-4-4-4-4-4-4-|-6-6-6-6-6-6-6-6--2-2-2-2-2-2-2-2-|
|------------------------------------|-4-4-4-4-4-4-4-4--0-0-0-0-0-0-0-0-|


      B5             C#5               G#5              E5
  +S   S S S S S S S S S S S S S S S   S S S S S S S S  S S S S S S S S
|------------------------------------|----------------------------------|
|------------------------------------|----------------------------------|
|-(4)-/8-8-8-8-8-8-8-8-8-8-8-8-8-8-8-|-8-8-8-8-8-8-8-8\-4-4-4-4-4-4-4-4-|
|------x-x-x-x-x-x-x-x-x-x-x-x-x-x-x-|-x-x-x-x-x-x-x-x--x-x-x-x-x-x-x-x-|
|-(2)-/6-6-6-6-6-6-6-6-6-6-6-6-6-6-6-|-6-6-6-6-6-6-6-6\-2-2-2-2-2-2-2-2-|
|-----/7-7-7-7-7-7-7-7-7-7-7-7-7-7-7-|-7-7-7-7-7-7-7-7------------------|
|
|      PM-------------------------------------------------------------|
|  S   S S S S S S S S S S S S S S S   S S S S S S S S  S S S S S S S S
|------------------------------------|----------------------------------|
|------------------------------------|----------------------------------|
|------------------------------------|----------------------------------|
|------4-4-4-4-4-4-4-6-6-6-6-6-6-6-6-|----------------------------------|
|------2-2-2-2-2-2-2-4-4-4-4-4-4-4-4-|-6-6-6-6-6-6-6-6--2-2-2-2-2-2-2-2-|
|------------------------------------|-4-4-4-4-4-4-4-4--0-0-0-0-0-0-0-0-|


                                                            D.S. al Coda
      B5             C#5               G#5              E5
  +S   S S S S S S S S S S S S S S S   S S S S S S S S  S S S S S S S S
|------------------------------------|------------------------------------|
|------------------------------------|------------------------------------|
|-(4)-/8-8-8-8-8-8-8-8-8-8-8-8-8-8-8-|-8-8-8-8-8-8-8-8\-4-4-4-4-4-4-4-4---|
|------x-x-x-x-x-x-x-x-x-x-x-x-x-x-x-|-x-x-x-x-x-x-x-x--x-x-x-x-x-x-x-x---|
|-(2)-/6-6-6-6-6-6-6-6-6-6-6-6-6-6-6-|-6-6-6-6-6-6-6-6\-2-2-2-2-2-2-2-2---|
|-----/7-7-7-7-7-7-7-7-7-7-7-7-7-7-7-|-7-7-7-7-7-7-7-7--------------------|
|
|      PM-------------------------------------------------------------|
|  S   S S S S S S S S S S S S S S S   S S S S S S S S  S S S S S S S S
|------------------------------------|------------------------------------|
|------------------------------------|------------------------------------|
|------------------------------------|------------------------------------|
|------4-4-4-4-4-4-4-6-6-6-6-6-6-6-6-|------------------------------------|
|------2-2-2-2-2-2-2-4-4-4-4-4-4-4-4-|-6-6-6-6-6-6-6-6--2-2-2-2-2-2-2-2---|
|------------------------------------|-4-4-4-4-4-4-4-4--0-0-0-0-0-0-0-0---|


  &
  G#5             E5
  Gtrs II, III
  S S S S S S S S S S S S S S S S
|---------------------------------|
|---------------------------------|
|---------------------------------|
|-6-6-6-6-6-6-6-6-2-2-2-2-2-2-2-2-|
|-6-6-6-6-6-6-6-6-2-2-2-2-2-2-2-2-|
|-4-4-4-4-4-4-4-4-0-0-0-0-0-0-0-0-|


  B5              F#/Bb             G#5             E5
  S S S S S S S S S S S S S S S S   S S S S S S S S S S S S S S S S
|---------------------------------|---------------------------------|
|---------------------------------|---------------------------------|
|-4-4-4-4-4-4-4-4-----------------|---------------------------------|
|-4-4-4-4-4-4-4-4-4-4-4-4-4-4-4-4-|-6-6-6-6-6-6-6-6-2-2-2-2-2-2-2-2-|
|-2-2-2-2-2-2-2-2-1-1-1-1-1-1-1-1-|-6-6-6-6-6-6-6-6-2-2-2-2-2-2-2-2-|
|---------------------------------|-4-4-4-4-4-4-4-4-0-0-0-0-0-0-0-0-|


  B5              F#/Bb             G#5           E5
  S S S S S S S S S S S S S S S S   S S S S S S S S +H
|---------------------------------|------------------------||
|---------------------------------|------------------------||
|-4-4-4-4-4-4-4-4-----------------|------------------------||
|-4-4-4-4-4-4-4-4-4-4-4-4-4-4-4-4-|-6-6-6-6-6-6-6-2-(2)----||
|-2-2-2-2-2-2-2-2-1-1-1-1-1-1-1-1-|-6-6-6-6-6-6-6-2-(2)----||
|---------------------------------|-4-4-4-4-4-4-4-0-(0)----||


 Interlude
  B5      C#m       B         E5/B
                     >
  W                 +W
|-----------------|-------------------|
|-----------------|-------------------|
|-4---------------|-(4)---------------|
|-x---------------|-------------------|
|-2---------------|-(2)---------------|
|-----------------|-------------------|
|
| Gtr I
| E E E E E E E E    E  E E E E E E E
|-----------------|-------------------|
|-----------------|-------------------|
|-----------------|-------------------|
|-----------------|--9----9-----------|
|-9---9---7---7---|--6----6---7---7---|
|-7---7---9---9---|--7----7---7---7---|


    B5      C#m       B       E5/B
    Gtr I
    E E E E E E E E   E E E E E E E E
||------------------|------------------||
||o-----------------|-----------------o||
||------------------|------------------||
||------------------|-9---9------------||
||o-9---9---7---7---|-6---6---7---7---o||
||--7---7---9---9---|-7---7---7---7----||


  B5      C#m       B       E5/B
  E E E E E E E E   E E E E E E  E E
|-----------------|------------------|
|-----------------|------------------|
|-----------------|------------------|
|-----------------|-9---9------------|
|-9---9---7---7---|-6---6---7----7---|
|-7---7---9---9---|-7---7---7----7---|
|
| Gtrs II, III
|                             <
| W                 H       E Q.
|-----------------|------------------|
|-----------------|------------------|
|-----------------|------------------|
|-----------------|-----------4------|
|-----------------|-----------2------|
|-----------------|------------------|


    B5              C#m               B/D#            B/E
    Gtrs II, III
      PM--------------------------------------------------|
    S S S S S S S S S S S S S S S S   S S S S S S S S S S S S S S S S
||----------------------------------|-----------------------------------||
||o---------------------------------|----------------------------------o||
||----------------------------------|-----------------------------------||
||--4-4-4-4-4-4-4-4-2-2-2-2-2-2-2-2-|-1-1-1-1-1-1-1-1-------1-1-1-1-1---||
||o-2-2-2-2-2-2-2-2-4-4-4-4-4-4-4-4-|-----------------2-2-2------------o||
||----------------------------------|-----------------------------------||


   Interlude
                                     1.
    B5              F#/C#             G#5/D#           E5
    Gtr III
    S S S S S S S S S S S S S S S S    S S S S S S S S E.     S +E    E
||----------------------------------|---------------------------------------||
||o---------------------------------|--------------------------------------o||
||--4-4-4-4-4-4-4-4-3-3-3-3-3-3-3-3-|-/8-8-8-8-8-8-8-8-6------4-(4)---6-----||
||--x-x-x-x-x-x-x-x-x-x-x-x-x-x-x-x-|--x-x-x-x-x-x-x-x-x------x-------x-----||
||o-2-2-2-2-2-2-2-2-1-1-1-1-1-1-1-1-|-/6-6-6-6-6-6-6-6-4------2-(2)---4----o||
||----------------------------------|---------------------------------------||
|
|   Gtr II
|   S S S S S S S S S S S S S S S S    S S S S S S S S S  S S S  S  S S S
||----------------------------------|---------------------------------------||
||o---------------------------------|--------------------------------------o||
||--4-4-4-4-4-4-4-4-----------------|---------------------------------------||
||--4-4-4-4-4-4-4-4-4-4-4-4-4-4-4-4-|--6-6-6-6-6-6-6-6-2--2-2-2--2--2-2-2---||
||o-2-2-2-2-2-2-2-2-1-1-1-1-1-1-1-1-|--6-6-6-6-6-6-6-6-2--2-2-2--2--2-2-2--o||
||----------------------------------|--4-4-4-4-4-4-4-4-0--0-0-0--0--0-0-0---||


  2.
  G#5/D#           E5
   S S S S S S S S S S S S S S S S
|-----------------------------------|
|-----------------------------------|
|-/8-8-8-8-8-8-8-8-6-6-6-6-6-6-6-6/-|
|--x-x-x-x-x-x-x-x-x-x-x-x-x-x-x-x--|
|-/6-6-6-6-6-6-6-6-4-4-4-4-4-4-4-4/-|
|-----------------------------------|
|
|  S S S S S S S S S S S S S S S S
|-----------------------------------|
|-----------------------------------|
|-----------------------------------|
|--6-6-6-6-6-6-6-6-2-2-2-2-2-2-2-2--|
|--6-6-6-6-6-6-6-6-2-2-2-2-2-2-2-2--|
|--4-4-4-4-4-4-4-4-0-0-0-0-0-0-0-0--|


                            1.
    B5       F#/Bb       G#5            E5
    Gtr II
     E E S E S +E  E S E S    E  E S E  S +S  S S S S S S S
     | | | | |  |  | | | |    |  | | |  |  |  | | | | | | |
     / / / / /  /  / / / /    /  / / /  /  /  / / / / / / /

    Gtr III
     E E S E S +E  E S E S   +E  E S E  S +E    E   S S S S
||-------------------------|----------------------------------||
||o------------------------|---------------------------------o||
||--/8-8-8-8-8-(8)-8-8-8-8-|-(8)-8-8-8\-4-(4)---4---4-4-4-4/--||
||---x-x-x-x-x-----x-x-x-x-|-----x-x-x--x-------x---x-x-x-x---||
||o-/6-6-6-6-6-(6)-6-6-6-6-|-(6)-6-6-6\-2-(2)---2---2-2-2-2/-o||
||-------------------------|----------------------------------||


  2.
  G#5       E5                  F#5
  +E  E S E S +S  S S S S S E   W
   |  | | | |  |  | | | | | |
   /  / / / /  /  / / / / / /

                                Gtrs II, III
                                PM----------------------------|
   E  E S E S +E    S S E   E   S S S S S S S S S S S S S S S S
|-----------------------------|---------------------------------||
|-----------------------------|---------------------------------||
|-(8)-8-8-8-4-(4)---4-4-4---4-|---------------------------------||
|-----x-x-x-x-------x-x-x---x-|---------------------------------||
|-(6)-6-6-6-2-(2)---2-2-2---2-|-4-4-4-4-4-4-4-4-4-4-4-4-4-4-4-4-||
|-----------------------------|-2-2-2-2-2-2-2-2-2-2-2-2-2-2-2-2-||


 Chorus
  B5              F#/Bb             G#5             E5
  S S S S S S S S S S S S S S S S   S S S S S S S S S S S S S S S S
|---------------------------------|---------------------------------|
|---------------------------------|---------------------------------|
|-4-4-4-4-4-4-4-4-----------------|---------------------------------|
|-4-4-4-4-4-4-4-4-4-4-4-4-4-4-4-4-|-6-6-6-6-6-6-6-6-2-2-2-2-2-2-2-2-|
|-2-2-2-2-2-2-2-2-1-1-1-1-1-1-1-1-|-6-6-6-6-6-6-6-6-2-2-2-2-2-2-2-2-|
|---------------------------------|-4-4-4-4-4-4-4-4-0-0-0-0-0-0-0-0-|


  B5              F#/Bb             G#5             E5
  S S S S S S S S S S S S S S S S   S S S S S S S S S S S S S S S S
|---------------------------------|---------------------------------|
|---------------------------------|---------------------------------|
|-4-4-4-4-4-4-4-4-----------------|---------------------------------|
|-4-4-4-4-4-4-4-4-4-4-4-4-4-4-4-4-|-6-6-6-6-6-6-6-6-2-2-2-2-2-2-2-2-|
|-2-2-2-2-2-2-2-2-1-1-1-1-1-1-1-1-|-6-6-6-6-6-6-6-6-2-2-2-2-2-2-2-2-|
|---------------------------------|-4-4-4-4-4-4-4-4-0-0-0-0-0-0-0-0-|


  B5          F#/Bb         G#5             E5
  Gtr II
  E S S E   S S +E  E S S S S   +E  E S S S S  +E E S S S S
  | | | |   | |  |  | | | | |    |  | | | | |   | | | | | |
  / / / /   / /  /  / / / / /    /  / / / / /   / / / / / /

  Gtr III
  E E   S S S S +E  E S S S S   +E  E S S S S   E E S S S S
|-----------------------------|------------------------------|
|-----------------------------|------------------------------|
|-8-8---8-8-8-8-(8)-8-8-8-8-8-|-(8)-8-8-8-8-8\--4-4-4-4-4-4/-|
|-x-x---x-x-x-x-----x-x-x-x-x-|-----x-x-x-x-x---x-x-x-x-x-x--|
|-6-6---6-6-6-6-(6)-6-6-6-6-6-|-(6)-6-6-6-6-6\--2-2-2-2-2-2/-|
|-----------------------------|------------------------------|


  B5          F#/Bb           G#5         E5
                                    |-3-|
  E E S S S S  E  E S S S S    E  E E E E H      +W
  | | | | | |  |  | | | | |    |  | | | | |       |
  / / / / / /  /  / / / / /    /  / / / / /       /

                                    |-3-|
  E E S S S S +E  E S S S S   +E  E E E E H      +W
|---------------------------|------------------|--------|
|---------------------------|------------------|--------|
|-8-8-8-8-8-8-(8)-8-8-8-8-8-|-(8)-8-8-8-8-4----|-(4)----|
|-x-x-x-x-x-x-----x-x-x-x-x-|-----x-x-x-x-x----|--------|
|-6-6-6-6-6-6-(6)-6-6-6-6-6-|-(6)-6-6-6-6-2----|-(2)----|
|---------------------------|------------------|--------|


  +W           +W           +W
   |            |            |
   /            /            /

  +W           +W           +W
|------------|------------|--------*|
|------------|------------|--------*|
|-(4)--------|-(4)--------|-(4)----*|
|------------|------------|--------*|
|-(2)--------|-(2)--------|-(2)----*|
|------------|------------|--------*|

3 comments total.
-1 reply
blink day 4 eva wrote on May 14 2008, 02:26 pm

sorry i couldnt understand a thing u just wrote whats all that extra crap u wrote thats sooo unneccesary
i mean what the hell does thhe slashes and all those lines and the random letters over the actually bar mean??!?! do somkething we all understand please!

+1 reply
MisaGuitarist wrote on August 24 2008, 12:16 pm

its right, but it was tabbed extra profesionally...which none of us need. the letters above the riffs are note lenghts slashes mean slide up, or down to the next note. Other than that i think its mostly correct...but a very complex version.

0 reply
l1vv88 wrote on January 20 2014, 02:10 pm

Good, i thought i was the only one.

I want to post or [tab]
guest
You may want to rate the tab now too:
select rating
Please do not post tabs as comments. Select "correction" instead!