Oops, an error
Loading. Please wait.

Reckless Abandon Bass Tab

ver5
ver5
More versions @911Tabs.com
2,933 views 9 this week
1 commentread comment
1 2 3 4 5
excellent!
x 5
Autoscroll
+/-
esc
set tempo
stop
Difficulty
novice
Hey! There's an official Ultimate Guitar app which is ideal
for learning songs when you're away from computer. Get the app
WARNING: You are trying to view
                                    content from Ultimate-Guitar.com
                                    in an unauthorized application,
                                    which is prohibited.

                                    Please use an official Ultimate
                                    Guitar Tabs application for iPhone,
                                    iPad or Android to access legitimate
                                    chords, guitar, bass, and drum tabs
                                    from Ultimate-Guitar.com database.

                                    Type "ultimate guitar tabs" in Apple
                                    App Store's or Android Market's
                                    search to find the application.
-----------------------------------------------------------------------------
			   RECKLESS ABANDON - Blink 182
-----------------------------------------------------------------------------

Tabbed By : Lennon_on_Bass
e-mail: ajlu@cogeco.ca

Tuning: Standard


Guitar and Vocals Start

Bass starts at 0:18

Pre-Verse

G------------------------------------------|
D------------------------------------------| x4
A---2-2-222--------------------------------|
E----------0-0-000-4-4-444-2-2-222---------|

Verse

G--------------------------------------------------------------------------|
D--------------------------------------------------------------------------|
A--2-2-2222-2-2-2222-2-2-2222-2-2-2222-------------------------------------|
E--------------------------------------2-2-2222-2-2-2222-2-2-2222-2-2-2222-|

G-------------------------------------------------------------------------|
D-------------------------------------------------------------------------|
A---2-2-2222-2-2-2222-2-2-2222-2-2-2222-----------------------------------|
E---------------------------------------2-2-2222-2-2-2222-2--------2------|

Chorus

G-------------------------------------------------------------------------|
D-------------------222-222-222-224-66666666444444442222222222222222------|
A--222-222-222-224-----2---2---2------------------------------------------|
E-----2---2---2-----------------------------------------------------------|

G-------------------------------------------------------------------------|
D--66666666444444442------------------------------------------------------|
A-------------------------------------------------------------------------|
E------------------0------------------------------------------------------|
                   ^let ring
Pre-Verse

G------------------------------------------|
D------------------------------------------| x4
A---2-2-222--------------------------------|
E----------0-0-000-4-4-444-2-2-222---------|

Verse

G--------------------------------------------------------------------------|
D--------------------------------------------------------------------------|
A--2-2-2222-2-2-2222-2-2-2222-2-2-2222-------------------------------------|
E--------------------------------------2-2-2222-2-2-2222-2-2-2222-2-2-2222-|

G-------------------------------------------------------------------------|
D-------------------------------------------------------------------------|
A---2-2-2222-2-2-2222-2-2-2222-2-2-2222-----------------------------------|
E---------------------------------------2-2-2222-2-2-2222-2--------2------|

Chorus

G-------------------------------------------------------------------------|
D-------------------222-222-222-224-66666666444444442222222222222222------|
A--222-222-222-224----2---2---2-------------------------------------------|
E-----2---2---2-----------------------------------------------------------|

G-------------------------------------------------------------------------|
D--66666666444444442------------------------------------------------------|
A-------------------------------------------------------------------------|
E------------------0------------------------------------------------------|
                   ^let ring
Outro

G------------------------------------------|
D------------------------------------------| x3
A--2---------------------------------------|
E------0---4---2---------------------------|


G------------------------------------------|
D------------------------------------------|
A--2---------------2-----------------------|
E------0---4---2---------------------------|


Chorus

G-------------------------------------------------------------------------|
D-------------------222-222-222-224-66666666444444442222222222222222------|
A--222-222-222-224-----2---2---2------------------------------------------|
E-----2---2---2-----------------------------------------------------------|

G-------------------------------------------------------------------------|
D--66666666444444442------------------------------------------------------|
A-----------------------------------2-------------------------------------|
E------------------0------------------------------------------------------|
                   ^let ring
comments
print report bad tab
1 comment total.
0 reply
flanbass wrote on July 17 2014, 10:22 pm

I knew the chorus did something othe than just follow the guitar, thanks man....

I want to post or [tab]
guest
You may want to rate the tab now too:
select rating
Please do not post tabs as comments. Select "correction" instead!