Oops, an error
Loading. Please wait.

Take Off Your Pants And Jacket Bass Tab

ver3
ver3

Album

More versions @911Tabs.com
10,327 views 39 this week
4 commentsread comments
1 2 3 4 5
excellent!
x 4
add to favorites launch autoscroll
font size
0
reset
Autoscroll
+/-
esc
set tempo
stop
Contributor
WARNING: You are trying to view
                                    content from Ultimate-Guitar.com
                                    in an unauthorized application,
                                    which is prohibited.

                                    Please use an official Ultimate
                                    Guitar Tabs application for iPhone,
                                    iPad or Android to access legitimate
                                    chords, guitar, bass, and drum tabs
                                    from Ultimate-Guitar.com database.

                                    Type "ultimate guitar tabs" in Apple
                                    App Store's or Android Market's
                                    search to find the application.
Blink 182
Take Off Your Pants and Jacket

Yeah so this is a sweet album, the other album tabs were partially wrong in some places, 
i just took the best tabs i could find on UG and a few of my own, and then put them all 
one album, all the credit is given after the song title.

ANTHEM PT. 2 - Tabbed by: Unregistered


G:--------------------------------|
D:--------------------------------|
A:-3333---------------------------|     X2
E:--------------------------------|


G:--------------------------------|
D:-----------------------33333333-|
A:-3333-5555555500000000----------|
E:--------------------------------|


G:-----------------------------------|
D:--------------------------33333333-|
A:-333333335555555500000000----------|    X5
E:-----------------------------------|


G:-----------------------------------|
D:-----------------------------------|
A:-333333333333333300000000----------|
E:--------------------------11111111-|


G:--------------------------------------|
D:--------------------------------------|
A:-333333333333333300000000-------------|
E:--------------------------1(let ring)-|


G:-----------------------------------|
D:-----------------------------------|
A:-333333333333333300000000----------|
E:--------------------------11111111-|


G:-----------------------------------|
D:--------------------------33333333-|
A:-333333333333333300000000----------|
E:-----------------------------------|


G:-----------------------------------|
D:-----------------------------------|
A:-333333333333333300000000----------|       X2
E:--------------------------11111111-|


G:------------------------------------|
D:------------------------------------|
A:--7---5---3(let ring)---------------|
E:-5-5-3-3-1--------------------------|


G:-----------------------------------|
D:-----------------------------------|
A:-333333333333333300000000----------|
E:--------------------------11111111-|


G:-----------------------------------|
D:--------------------------33333333-|
A:-333333333333333300000000----------|
E:-----------------------------------|


G:-----------------------------------|
D:-----------------------------------|
A:-333333333333333300000000----------|    X2
E:--------------------------11111111-|

1x
G:------------------------------------|
D:------------------------------------|
A:--7---5---3(let ring)---------------|
E:-5-5-3-3-1--------------------------|


G:-------------------------------------|
D:-------------------------------------|
A:-------------------33333333----------|     X2
E:-0000000011111111-----------33333333-|

G:--------------------------------------|
D:--------------------------------------|
A:-00000000-----------33333333----------|
E:----------111111111----------33333333-|


G:----------------------------|
D:----------------------------|
A:-00000000-------------------|
E:----------1-----------------|


G:-----------------------------------|
D:-----------------------------------|
A:-333333333333333300000000----------|
E:--------------------------11111111-|


G:------------------------------------------|
D:------------------------------------------|
A:-333333333333333300000000-----------------|
E:--------------------------1(let ring)-----|


G:-----------------------------------|
D:-----------------------------------|
A:-333333333333333300000000----------|    X4
E:--------------------------11111111-|


G:------------------------------------|
D:------------------------------------|
A:--7---5----3(let ring)--------------|
E:-5-5-3-3-1--------------------------|


G:------------------------------------|
D:------------------------------------|
A:------------------33333333----------|    X2
E:-0000000011111111----------33333333-|


G:--------------------------------------|
D:--------------------------------------|
A:-00000000-----------33333333----------|
E:----------111111111----------33333333-|


G:----------------------------|
D:----------------------------|
A:-00000000-------------------|
E:----------1-----------------|


G:-----------------------------------|
D:-----------------------------------|
A:-333333333333333300000000----------|    X4
E:--------------------------11111111-|

G:-17----17----17----17----17----17----17-------|
D:----17----17----17----17----17----17----17----|
A:----------------------------------------------|   X2
E:----------------------------------------------|

G:------------------------------------|
D:------------------------------------|
A:------------------33333333----------|    X2
E:-0000000011111111----------33333333-|


G:--------------------------------------|
D:--------------------------------------|
A:-00000000-----------33333333----------|
E:----------111111111----------33333333-|


G:----------------------------|
D:----------------------------|
A:-00000000-------------------|
E:----------1-----------------|


G:--------------------------------------|
D:-----------00000000-------------------|
A:-333333333----------00000000----------|    X3
E:-----------------------------11111111-|


G:-----------------------------------------|
D:-----------00000000----------------------|
A:-333333333----------00000000-------------|
E:-----------------------------1(let ring)-|

-----------------------------------------------------------------------------

Online Songs - Tabbed by: Ibanezbass27

Intro
G--------------------------------------|
D-----------------00000000-22222222----| x3
A-00000000-22222222--------------------|
E--------------------------------------|

G--------------------------------------|
D-----------------00000000-2-----------|
A-00000000-22222222--------------------|
E--------------------------------------|

Pre Verse
G--------------------------------------|
D-----------------00000000-22222222----| x2
A-00000000-22222222--------------------|
E--------------------------------------|

Verse
G-------------------------------------|
D-----------------44442222------------| X2
A-0000000022222222--------00000000----|
E-------------------------------------|
Pre Verse
G-------------------------------------|
D-----------------0000000022222222----| x2
A-0000000022222222--------------------|
E-------------------------------------|

Verse 2
G-------------------------------------|
D-----------------44442222------------|     X2
A-0000000022222222--------00000000----|
E-------------------------------------|

Chorus
G-------------------------------------|
D-------------------------------------|
A-00000000--------2222222200000000----| x2
E---------00000000--------------------|

Verse
G-------------------------------------|
D-----------------44442222------------|     X2
A-0000000022222222--------00000000----|
E-------------------------------------|

Chorus
G-------------------------------------|
D-------------------------------------|
A-00000000--------2222222200000000----| x4
E---------00000000--------------------|

Bridge
G----------------------------|
D----------------------------|
A000-555-0000000-------------|    X2
E---------------00000000-----|

G----------------------------------|
D----------------------------------|
A000000005555555500000000----------| x2
E------------------------00000000--|

Chorus
G-------------------------------------|
D-------------------------------------|
A-00000000--------2222222200000000----| x4
E---------00000000--------------------|

-----------------------------------------------------------------------------


First Date - Tabbed by fenderplayer182


Intro:
G|---------------------------------------------------|
D|---------------------------------------------------|
A|-33333333-55555555-88888888-1010101010101010-------|     X2
E|---------------------------------------------------|

Verse:
(In the car I just can't wait)
G|----------------------------------------|
D|----------------------------------------|
A|-3333333333333333-----------------------|		x4
E|------------------33333333-11111111-----|

Chorse 1:
(Let's go don't wait)
G|-------------------------------------|
D|-------------------------------------|
A|-333-222-00000000--------------------|		x2
E|------------------111-333------------|

Chorse 2:
(Forever and ever let's make this last forever)
G|-------------------------------------|
D|-------------------------------------|
A|-33333333-22222222-00000000----------|		x2
E|----------------------------111-333--|

Intro:
G|----------------------------------------------|
D|----------------------------------------------|
A|-33333333-55555555-88888888-1010101010101010--|		x2
E|----------------------------------------------|

Verse:
(In the car I just can't wait)
G|----------------------------------------|
D|----------------------------------------|
A|-3333333333333333-----------------------|		x4
E|------------------33333333-11111111-----|

Chorse 1:
(Let's go don't wait)
G|-------------------------------------|
D|-------------------------------------|
A|-333-222-00000000--------------------|	x2
E|------------------111-333------------|

Chorse 2:
(Forever and ever let's make this last forever)
G|-------------------------------------|
D|-------------------------------------|
A|-33333333-22222222-00000000----------|		x2
E|----------------------------111-333--|

Interlude:
Play this during the Guitar Solo:
G|--------------------------------------|
D|--------------------------------------|
A|-33333333-----------------------------|	x6
E|----------00000000-11111111-33333333--|

Chorse 1:
(Let's go don't wait)
G|-------------------------------------|
D|-------------------------------------|
A|-333-222-00000000--------------------|	x2
E|------------------111-333------------|

Chorse 2:
(Forever and ever let's make this last forever)
G|-------------------------------------|
D|-------------------------------------|
A|-33333333-22222222-00000000----------|		x4
E|----------------------------111-333--|

-----------------------------------------------------------------------------

Happy Holidays - Tabbed by Liam

Riff 1
G|-----------------------------------------------------------------------|
D|-----------------------------------------------------------------------|
A|-----------------------------------------------------------------------|
E|-7-7-7-7-7-7--2-2-2-2-2-2---7-7-7-7-7-7--2-2-2-2-2-2-------------------|

Riff 2
G|-----------------------------------------------------------------------|
D|-----------------------------------------------------------------------|
A|-----------------------------------------------------------------------|
E|--4---4-4-4-4-4-4---4--4-4-4-4-4-4---7-7-7-7--2-2-2-2------------------|

Riff 3
G|-----------------------------------------------------------------------|
D|-----------------------------------------------------------------------|
A|-----------------------------------------------------------------------|
E|-7--7--7--7---2-2-2-2-2-2-2-2-2-2-2-2--4-4-4-4-4-4-4-4-4-4-4-4-4-4-----|

G|-----------------------------------------------------------------------|
D|-----------------------------------------------------------------------|
A|-----------------------------------------------------------------------|
E|-2-2-2-2-2-2-2-2-2-2-2-2--4-4-4-4-4-4-4-4-4-4-4-4-4-4---2-2-2-2-2-2----|

Riff 1
G|-----------------------------------------------------------------------|
D|-----------------------------------------------------------------------|
A|-----------------------------------------------------------------------|
E|-7-7-7-7-7-7--2-2-2-2-2-2---7-7-7-7-7-7--2-2-2-2-2-2-------------------|

Riff 2
G|-----------------------------------------------------------------------|
D|-----------------------------------------------------------------------|
A|-----------------------------------------------------------------------|
E|--4---4-4-4-4-4-4---4--4-4-4-4-4-4---7-7-7-7--2-2-2-2------------------|

Riff 3
G|-----------------------------------------------------------------------|
D|-----------------------------------------------------------------------|
A|-----------------------------------------------------------------------|
E|-7--7--7--7---2-2-2-2-2-2-2-2-2-2-2-2--4-4-4-4-4-4-4-4-4-4-4-4-4-4-----|

G|-----------------------------------------------------------------------|
D|-----------------------------------------------------------------------|
A|-----------------------------------------------------------------------|
E|-2-2-2-2-2-2-2-2-2-2-2-2--4-4-4-4-4-4-4-4-4-4-4-4-4-4-4~---------------|

-----------------------------------------------------------------------------

Story Of A Lonely Guy - Tabbed by Adam Lenning creamthecookie@hotmail.com.

(I just took out the lyrics)

Intro: X2
G----------------------------------------------------------------:
D-----------------2-2-2-2-2-2-2-2-----------------0-0-0-0-0-0-0-0:
A-0-0-0-0-0-0-0-0-----------------4-4-4-4-4-4-4-4----------------:
E----------------------------------------------------------------:

Verse:X4
G----------------------------------------------------------------:
D----------------------------------------------------------------:
A-0-0-0-0-0-0-0-0-2-2-2-2-2-2-2-2-4-4-4-4-4-4-4-4-5-5-5-5-5-5-5-5:
E----------------------------------------------------------------:

Pre-Chorus: X2
G----------------------------------------------------------------:
D-----------------0-0-0-0-0-0-0-0-----------------2-2-2-2-2-2-2-2:
A-4-4-4-4-4-4-4-4-----------------0-0-0-0-0-0-0-0----------------:
E----------------------------------------------------------------:

Chorus: X4
G----------------------------------------------------------------:
D-----------------2-2-2-2-2-2-2-2-----------------0-0-0-0-0-0-0-0:
A-0-0-0-0-0-0-0-0-----------------4-4-4-4-4-4-4-4----------------:
E----------------------------------------------------------------:

Intro: X2
G----------------------------------------------------------------:
D-----------------2-2-2-2-2-2-2-2-----------------0-0-0-0-0-0-0-0:
A-0-0-0-0-0-0-0-0-----------------4-4-4-4-4-4-4-4----------------:
E----------------------------------------------------------------:

Verse:X4
G----------------------------------------------------------------:
D----------------------------------------------------------------:
A-0-0-0-0-0-0-0-0-2-2-2-2-2-2-2-2-4-4-4-4-4-4-4-4-5-5-5-5-5-5-5-5:
E----------------------------------------------------------------:

Pre-Chorus: X2
G----------------------------------------------------------------:
D-----------------0-0-0-0-0-0-0-0-----------------2-2-2-2-2-2-2-2:
A-4-4-4-4-4-4-4-4-----------------0-0-0-0-0-0-0-0----------------:
E----------------------------------------------------------------:


Chorus: X4
G----------------------------------------------------------------:
D-----------------2-2-2-2-2-2-2-2-----------------0-0-0-0-0-0-0-0:
A-0-0-0-0-0-0-0-0-----------------4-4-4-4-4-4-4-4----------------:
E----------------------------------------------------------------:

Bridge: X2
G----------------------------------------------------------------:
D---------------------------------2-2-2-2-2-2-2-2-2-2-2-2-2-2-2-2:
A-4-4-4-4-4-4-4-4-2-2-2-2-2-2-2-2--------------------------------:
E----------------------------------------------------------------:

G----------------------------------------------------------------:
D---------00000000-22222222--------------------------------------:
A-44444444------------------0000------444444444-22222222---------:
E--------------------------------4444----------------------------:

Chorus: X6
G----------------------------------------------------------------:
D-----------------2-2-2-2-2-2-2-2-----------------0-0-0-0-0-0-0-0:
A-0-0-0-0-0-0-0-0-----------------4-4-4-4-4-4-4-4----------------:
E----------------------------------------------------------------:

G----------------------------------------------------------------:
D-----------------2-2-2-2-2-2-2-2-----------------0-0-0-0-0-0-0-0:
A-0-0-0-0-0-0-0-0-----------------4-4-4-4-4-4-4-4----------------:
E----------------------------------------------------------------:

-----------------------------------------------------------------------------

The Rock Show - Tabbed by Unregistered

INTRO
G-----------------------------------------|
D-----------------------------------------|
A------------------55555555-77777777------| (x2)
E-5555555555555555------------------------|

G------------------|
D------------------|
A------------------|
E-5555555555555555-|

VERSE
G-----------------------------------------|
D-----------------------------------------|
A------------------55555555-77777777------| (x6)
E-5555555555555555------------------------|

CHORUS ("I fell in love with a girl at the rock show")
G-----------------|
D-----------------|
A-------------5---| (x3)
E--5-5-5---2------|

G-----------------------------------------|
D-----------------------------------------|
A--77777777-55555555-77777777-55555555----|
E-----------------------------------------|

G-------------------|
D-------------------|
A--77777777--5---4--|
E-------------------|

VERSE
G-----------------------------------------|
D-----------------------------------------|
A------------------55555555-77777777------| (x2)
E-5555555555555555------------------------|

CHORUS ("I fell in love with a girl at the rock show")
G-----------------|
D-----------------|
A-------------5---| (x3)
E--5-5-5---2------|

G-----------------------------------------|
D-----------------------------------------|
A--77777777-55555555-77777777-55555555----|
E-----------------------------------------|

G-------------------|
D-------------------|
A--77777777--5---4--|
E-------------------|

Bridge
G--------------------------------------------------|
D--------------------------------------------------|
A-9999999--7--555555--4--------------4-5-77777777--| (x2)
E-----------------------7--555555--7---------------|

CHORUS ("I fell in love with a girl at the rock show")
G-----------------|
D-----------------|
A-------------5---| (x3)
E--5-5-5---2------|

G-----------------------------------------|
D-----------------------------------------|
A--77777777-55555555-77777777-55555555----|
E-----------------------------------------|

G-------------------|
D-------------------|
A--77777777--5---4--|
E-------------------|

VERSE
G-----------------------------------------|
D-----------------------------------------|
A------------------55555555-77777777------|
E-5555555555555555------------------------|

Play Verse until the end comes and fade out.

-----------------------------------------------------------------------------

Stay Together For The Kids - Tabbed by Daniel Luengas/Javier Luengas
daniel182col@hotmail.com/javi_er3000@hotmail.com

Bass does not play intro and verse 1.

Chorus:

G|----------------------------------------|
D|----------------------------------------|
A|----------------------------------------|  X4
E|-3333333333333-222222222222222----------|

Guitar intro( bass does not play)

Verse 2:

G|---7---7---7---7---7---7---7---7---9---9---9---9---9---9-|
D|-77--77--77--77--00--00--00--00--77--77--77--77--77--77--|
A|---------------------------------------------------------| X2
E|---------------------------------------------------------|

Chorus:

G|----------------------------------------|
D|----------------------------------------|
A|----------------------------------------|  X4
E|-3333333333333-222222222222222----------|

Bridge:

G|---7-9-7---7-9-7----7---7----7-9-7-|
D|-77------77-------55--55---77------|
A|-----------------------------------| X4
E|-----------------------------------|

G|----------------------------------------|
D|----------------------------------------|
A|----------------------------------------| X2
E|-3333333333333-222222222222222----------|

Chorus:

G|----------------------------------------|
D|----------------------------------------|
A|----------------------------------------| X4
E|-3333333333333-222222222222222----------|

Outro:
its not right.... its not right....
G|----------------------------------------|
D|----------------------------------------|
A|----------------------------------------| X6
E|-3333333333333-222222222222222----------|

-----------------------------------------------------------------------------

Roller Coaster - Tabbed by Andy Hayes(pandobrat@hotmail.com)


INTRO
G-------------------|
D-------------------|
A----------555555---|
E--555555-----------|

CHORUS ("Breatheing deeply...")
*This time, you'll only play it once (after 1/2
of this being only guitar), but every other time
you play it twice
G----------------------------------------|
D----------------------------------------|
A--------------------55555555------5555--| (x2)
E--5555555555555555-----------7777-------|

POST-CHORUS
G----------------------------------------|
D----------------------------------------|
A------------------------------55555555--| (x2)
E--5555555555555555--00000000------------|

VERSE ("Leave me standing here...")
G--------------------------|
D--------------------------|
A--------5555--------5555--| (x4)
E--5555--------7777--------|

POST-CHORUS
G----------------------------------------|
D----------------------------------------|
A------------------------------55555555--| (x2)
E--5555555555555555--00000000------------|

VERSE ("Leave me standing here...")
G--------------------------|
D--------------------------|
A--------5555--------5555--| (x4)
E--5555--------7777--------|

Chorus
G----------------------------------------|
D----------------------------------------|
A--------------------55555555------5555--| (x2)
E--5555555555555555-----------7777-------|

BREAK
**Just drums for a bit, then...
G----------------------------------------|
D----------------------------------------|
A------------------------------55555555--| (x2)
E--5555555555555555--00000000------------|

VERSE ("Leave me standing here...")
G--------------------------|
D--------------------------|
A--------5555--------5555--| (x4)
E--5555--------7777--------|

Chorus
G----------------------------------------|
D----------------------------------------|
A--------------------55555555------5555--| (x2)
E--5555555555555555-----------7777-------|

ENDING
G---------------------------------------|
D---------------------------------------|
A-----------555-------------------------|
E-555555555------5-(hold note and fade)-|

-----------------------------------------------------------------------------

Reckless Abandon - Ibanezbass27

after Tom's done singing
G|--------------------------------|
D|--------------------------------|
A|2222222-------------------------| x4
E|-------000000004444444422222222-|

Verse:
G|------------------------------------------------------------------|
D|------------------------------------------------------------------|
A|-22222222222222222222222222222222---------------------------------| x2
E|---------------------------------22222222222222222222222222222222-|

Chorus:
G|--------------------------------------------------------|
D|--------------------------------------------------------|
A|22222222222222222222222244446666777777777777777777777777|
E|--------------------------------------------------------|

G|----------------------------------------------------------------|
D|----------------------------------------------------------------|
A|----------------------------------------------------------------| x2
E|4444444444444444222222222222222200000000000000000000000000000000|
on 2nd time play E|0~|


Verse:
G|------------------------------------------------------------------|
D|------------------------------------------------------------------|
A|-22222222222222222222222222222222---------------------------------| x2
E|---------------------------------22222222222222222222222222222222-|

Chorus:
G|--------------------------------------------------------|
D|--------------------------------------------------------|
A|22222222222222222222222244446666777777777777777777777777|
E|--------------------------------------------------------|

G|----------------------------------------------------------------|
D|----------------------------------------------------------------|
A|----------------------------------------------------------------| x2
E|4444444444444444222222222222222200000000000000000000000000000000|

Bridge
G|-----------|
D|-----------|
A|-----------|
E|7~-0~-4~-2~| x4

Chorus:
G|--------------------------------------------------------|
D|--------------------------------------------------------|
A|22222222222222222222222244446666777777777777777777777777|
E|--------------------------------------------------------|

G|----------------------------------------------------------------|
D|----------------------------------------------------------------|
A|----------------------------------------------------------------| x2
E|4444444444444444222222222222222200000000000000000000000000000000|

-----------------------------------------------------------------------------

Every Time I Look For You - Tabbed by Ibanezbass27

Intro
G|------------|
D|------------|
A|2~-----4~-7~| x4
E|------------|

Verse
G|--------------------------------|
D|--------------------------------|
A|22222222999999997777777766666666| x2
E|--------------------------------|

G|--------------------------------|
D|--------------------------------|
A|22222222222222224444444477777777| x2
E|--------------------------------|

Chorus
G---------|
D---------|
A2~--4~-7~| x2
E---------|

G|--------------------------------|
D|--------------------------------|
A|--------------------------------|x4
E|44444444444444440000000077777777|

G|----------------|
D|----------------|
A|7777777777777777|
E|----------------|

Verse
G|--------------------------------|
D|--------------------------------|
A|22222222999999997777777766666666| x2
E|--------------------------------|

G|--------------------------------|
D|--------------------------------|
A|22222222222222224444444477777777| x2
E|--------------------------------|

Chorus
G---------|
D---------|
A2~--4~-7~| x2
E---------|

G|--------------------------------|
D|--------------------------------|
A|--------------------------------|x4
E|44444444444444440000000077777777|

G|----------------|
D|----------------|
A|7777777777777777|
E|----------------|

Bridge
(no bass in beginning)
G|----------------------------------------------------------------|
D|----------------------------------------------------------------|
A|2222222222222222666666666666999977777777777777777777777777777777|x4
E|----------------------------------------------------------------|

Chorus
G---------|
D---------|
A2~--4~-7~| x2
E---------|

G|--------------------------------|
D|--------------------------------|
A|--------------------------------|
E|44444444444444440000000077777777|
play until end, let last note ring


-----------------------------------------------------------------------------

Give Me One Good Reason - Tabbed by Tom DelongII

Intro - Note: This might not be played.
G|------------------------------------------------------------------|
D|------------------------------------------------------------------|
A|-------2~~~~-------2~~~~~-4~~~~-0~~~~-4~~~~-2~~~~--2222-----------| x1
E|-0~~~~-------0~~~~------------------------------------------------|

First Verse
G|------------------------------------------------------------------|
D|------------------------------------------------------------------|
A|-------22222-------22222-44444-00000-44444-22222------------------| x1
E|-00000-------00000------------------------------------------------|

Pre-Chorus - Note: Timing is kind of tricky. Play only on the chords
                   that aren't palm muted.  Don't play on the singluar
                   notes either.
G|------------------------------------------------------------------|
D|------------------------------------------------------------------|
A|----------2222----------------------------------------------------| x2
E|-00000------------------------------------------------------------|

Second Verse
G|------------------------------------------------------------------|
D|------------------------------------------------------------------|
A|-------22222-------22222-44444-00000-44444-22222------------------| x1
E|-00000-------00000------------------------------------------------|

Pre-Chorus - Note: Timing is kind of tricky. Play only on the chords
                   that aren't palm muted.  Don't play on the singluar
                   notes either.
G|------------------------------------------------------------------|
D|------------------------------------------------------------------|
A|----------2222----------------------------------------------------| x2
E|-00000------------------------------------------------------------|

Chorus
G|------------------------------------------------------------------|
D|------------------------------------------------------------------|
A|-------------------2222222222222222-------------------------------| x1
E|-00000000-44444444------------------------------------------------|

G|------------------------------------------------------------------|
D|------------------------------------------------------------------|
A|-------------------22222222-00000000------------------------------| x1
E|-00000000-44444444------------------------------------------------|

G|------------------------------------------------------------------|
D|------------------------------------------------------------------|
A|-------------------2222222222222222-------------------------------| x1
E|-00000000-44444444------------------------------------------------|

G|------------------------------------------------------------------|
D|------------------------------------------------------------------|
A|-------------------22222222-00000000------------------------------| x1
E|-00000000-44444444------------------------------------------------|


Intro - Note: This might not be played.
G|------------------------------------------------------------------|
D|------------------------------------------------------------------|
A|-------2~~~~-------2~~~~~-4~~~~-0~~~~-4~~~~-2~~~~--2222-----------| x1
E|-0~~~~-------0~~~~------------------------------------------------|

Third Verse
G|------------------------------------------------------------------|
D|------------------------------------------------------------------|
A|-------22222-------22222-44444-00000-44444-22222------------------| x1
E|-00000-------00000------------------------------------------------|

Pre-Chorus - Note: Timing is kind of tricky. Play only on the chords
                   that aren't palm muted.  Don't play on the singluar
                   notes either.
G|------------------------------------------------------------------|
D|------------------------------------------------------------------|
A|----------2222----------------------------------------------------| x4
E|-00000------------------------------------------------------------|

Chorus
G|------------------------------------------------------------------|
D|------------------------------------------------------------------|
A|-------------------2222222222222222-------------------------------| x1
E|-00000000-44444444------------------------------------------------|

G|------------------------------------------------------------------|
D|------------------------------------------------------------------|
A|-------------------22222222-00000000------------------------------| x1
E|-00000000-44444444------------------------------------------------|

G|------------------------------------------------------------------|
D|------------------------------------------------------------------|
A|-------------------2222222222222222-------------------------------| x1
E|-00000000-44444444------------------------------------------------|

G|------------------------------------------------------------------|
D|------------------------------------------------------------------|
A|-------------------22222222-00000000------------------------------| x1
E|-00000000-44444444------------------------------------------------|

Bridge
G|------------------------------------------------------------------|
D|------------------------------------------------------------------|
A|-4444444444444444-------------------------------------------------| x1
E|------------------4444444444444444--------------------------------|

G|------------------------------------------------------------------|
D|------------------------------------------------------------------|
A|-4444444444444444-2222222222222222--------------------------------| x1
E|------------------------------------------------------------------|

G|------------------------------------------------------------------|
D|------------------------------------------------------------------|
A|-4444444444444444-------------------------------------------------| x1
E|------------------4444444444444444--------------------------------|

G|------------------------------------------------------------------|
D|------------------------------------------------------------------|
A|-4444444444444444-22222222----------------------------------------| x1
E|---------------------------44444444-------------------------------|

Chorus
G|------------------------------------------------------------------|
D|------------------------------------------------------------------|
A|-------------------2222222222222222-------------------------------| x1
E|-00000000-44444444------------------------------------------------|

G|------------------------------------------------------------------|
D|------------------------------------------------------------------|
A|-------------------22222222-00000000------------------------------| x1
E|-00000000-44444444------------------------------------------------|

G|------------------------------------------------------------------|
D|------------------------------------------------------------------|
A|-------------------2222222222222222-------------------------------| x1
E|-00000000-44444444------------------------------------------------|

G|------------------------------------------------------------------|
D|------------------------------------------------------------------|
A|-------------------22222222-00000000------------------------------| x1
E|-00000000-44444444------------------------------------------------|

End On
G|------------------------------------------------------------------|
D|------------------------------------------------------------------|
A|------------------------------------------------------------------| x1
E|-0~~~~~~~~--------------------------------------------------------|

-----------------------------------------------------------------------------

Shut Up - Tabbed by Brian Slocum, psychosatan666@yahoo.com

Intro/Verse
G: -------------------------------:
D: -------------------------------:
A: 0-0-0-0-0-0-0-0-4-4-4-4-5-5-5-5: x8
E: -------------------------------:

2 measures of rest

Intro/Verse
G: -------------------------------:
D: -------------------------------:
A: 0-0-0-0-0-0-0-0-4-4-4-4-5-5-5-5: x6
E: -------------------------------:

Chorus
"I’ll never ask permission..."
play 2x
G: ------------------:
D: ------------------:
A: 5-5-5-5----0-0-0-0:
E: ------------------:

"I’m not coming home..."
play 2x
G: ------------------------------:
D: ---------------0-0-0-0-0-0-0-0:
A: 2-2-2-2-2-2-2-2---------------:
E: ------------------------------:

Intro/Verse
G: -------------------------------:
D: -------------------------------:
A: 0-0-0-0-0-0-0-0-4-4-4-4-5-5-5-5: x4
E: -------------------------------:

Chorus
"I’ll never ask permission..."
play 2x
G: ------------------:
D: ------------------:
A: 5-5-5-5----0-0-0-0:
E: ------------------:

"I’m not coming home..."
play 2x
G: ------------------------------:
D: ---------------0-0-0-0-0-0-0-0:
A: 2-2-2-2-2-2-2-2---------------:
E: ------------------------------:


Bridge
G: -------------------------------:
D: -------------------------------:
A: 2-2-2-2-2-2-2-2-4-4-4-4-5-5-5-5: x6
E: -------------------------------:

Intro/Verse
G: -------------------------------:
D: -------------------------------:
A: 0-0-0-0-0-0-0-0-4-4-4-4-5-5-5-5: x4
E: -------------------------------:

Chorus
"I’ll never ask permission..."
play 2x
G: ------------------:
D: ------------------:
A: 5-5-5-5----0-0-0-0:
E: ------------------:

"I’m not coming home..."
play 2x
G: ------------------------------:
D: ---------------0-0-0-0-0-0-0-0:
A: 2-2-2-2-2-2-2-2---------------:
E: ------------------------------:

Intro/Verse
G: -------------------------------:
D: -------------------------------:
A: 0-0-0-0-0-0-0-0-4-4-4-4-5-5-5-5: x4
E: -------------------------------:

-----------------------------------------------------------------------------

Please Take Me Home - Tabbed by Unregistered User

(Intro has no bass)

Verse; (starts after 0:10 seconds)
G)-----------------------------------|
D)-----------------------------------|  (Play x4)
A)-22222222-44444444-----------------|
E)------------------44444444-0000000-|

Pre-chorus;
G)------------------------|
D)------------------------| (Play x1)
A)-------2222-------------|
E)-0000-------4444--2222--|

Just before the chorus when Tom says "Wrong"
G)---------------------| (Play x1)
D)---------------------| (I'm not sure how many times
A)---------------------|  he play's the open note.Just
E)-0>>>>>>-66666666-2--|  Listen to it a find out.)

Chorus;
G)-------------------------------------|
D)-------------------------------------| (Play x2)
A)-22222222-11111111-------------------|
E)-------------------44444444-00000000-|

Verse;
G)-----------------------------------|
D)-----------------------------------|  (Play x4)
A)-22222222-44444444-----------------|
E)------------------44444444-0000000-|

Pre-chorus;
G)------------------------|
D)------------------------| (Play x1)
A)-------2222-------------|
E)-0000-------4444--2222--|

Just before the chorus when Tom says "Wrong"
G)--------------------| (Play x1)
D)--------------------|
A)--------------------|
E)-0>>>>>>-66666666-2-|

Chorus;
G)-------------------------------------|
D)-------------------------------------| (Chorus is repeated this time so
play x4)
A)-22222222-11111111-------------------|
E)-------------------44444444-00000000-|

Bridge PT1;
G)----------------------------------|
D)----------------------------------| (Play x1)
A)--22--22--22--22---22--22--22--22-|
E)----------------------------------|

PT2;
G)--------------------------------------|
D)--------------------------------------| (Play x2)
A)-22222222-44444444-66666666-7777-6666-|
E)--------------------------------------|

PT3; (This is the bit where he says "Let's go!")
G)-------------------------------------|
D)-------------------------------------| (Play x2)
A)-22222222-11111111-66666666-44444444-|
E)-------------------------------------|

PT4;
G)-------------------------------------|
D)-------------------------------------| (Play x2)
A)-22222222-11111111-------------------|
E)-------------------44444444-00000000-|

End of Bridge;
G)-----------------|
D)-----------------|
A)-----------------|
E)-222222222222222-

(Then Play Chorus again x4)
G)-------------------------------------|
D)-------------------------------------|
A)-22222222-11111111-------------------|
E)-------------------44444444-00000000-|

Then play this for the 4th time
G)-------------------------------------|
D)-------------------------------------| (~ = Let note ring)
A)-22222222-11111111-------------------|
E)-------------------44444444-0~~~~~~~-|
comments
print report bad tab
4 comments total. Showing first comments.
0 reply
DanBass88 wrote on May 5 2008, 10:51 pm

the chorus transitions a little differently than just 33333333 than 22222222. if you listen when mark goes back to 3 he hits an open note than 2 than he goes to 3

+1 reply
TommyGun91 wrote on January 14 2009, 09:14 am

The chorus for online songs is wrong

It's played

G-------------------------------------|
D-00000000--------2222222200000000----| x4
A---------00000000--------------------|
E-------------------------------------|

0 reply
hennym5 wrote on August 24 2013, 09:50 pm

Intro to Story of a Lonely Guy:

G|-----9---9---9--|----------------|-----6---6---6--|-----2---4---6--|
D|-7-7---7---7---7|-9-9---9---9---9|-4-4---4---4---4|-0-0---0---0---0|
A|----------------|----------------|----------------|----------------|
E|----------------|----------------|----------------|----------------|

I want to post or [tab]
guest
You may want to rate the tab now too:
select rating
Please do not post tabs as comments. Select "correction" instead!