Oops, an error
Loading. Please wait.

Banquet Tab

ver4
ver4
More versions @911Tabs.com
4,332 views 1 this week
5 commentsread comments
1 2 3 4 5
worth learning
x 5
Autoscroll
+/-
esc
set tempo
stop
Difficulty
novice
Hey! There's an official Ultimate Guitar app which is ideal
for learning songs when you're away from computer. Get the app
WARNING: You are trying to view
                                    content from Ultimate-Guitar.com
                                    in an unauthorized application,
                                    which is prohibited.

                                    Please use an official Ultimate
                                    Guitar Tabs application for iPhone,
                                    iPad or Android to access legitimate
                                    chords, guitar, bass, and drum tabs
                                    from Ultimate-Guitar.com database.

                                    Type "ultimate guitar tabs" in Apple
                                    App Store's or Android Market's
                                    search to find the application.
 Gtr I
  Wx4
|--------|
|--------|
|--------|
|--------|
|--------|
|--------|


    A#5       D#5         C#5       F#5
    Gtr I
    E E  Q    E E  Q      E E  Q     E  E Q
||----------------------|---------------------|
||o---------------------|---------------------|
||----------------------|---------------------|
||------------8-8-------|-6-6-------11-11-----|
||o-8-8-------6-6-------|-4-4--------9--9-----|
||--6-6-----------------|---------------------|
|
|   Gtr II
|   Q    E  E Q    E  E   Q    E  E  Q    E E
||----------------------|---------------------|
||o---------------------|---------------------|
||------10-11-----10-11-|-----10-10-------6-6-|
||------11-11-----11-11-|-----11-11-------8-8-|
||o---------------------|---------------------|
||----------------------|---------------------|


                       1.                    2.
  A#5       D#5         C#5     G#5           C#5     G#5
  E E  Q    E E  Q      E E Q   E E  Q        E E Q   E E  Q
|---------------------|--------------------||----------------------|
|---------------------|-------------------o||----------------------|
|---------------------|--------------------||----------------------|
|-----------8-8-------|-6-6----------------||-6-6------------------|
|-8-8-------6-6-------|-4-4-----6-6-------o||-4-4-----6-6----------|
|-6-6-----------------|---------4-4--------||---------4-4----------|
|
| Q    E  E Q    E  E   Q   E E Q    E  E     Q   E E Q    E  E
|---------------------|--------------------||----------------------|
|---------------------|-------------------o||----------------------|
|-----10-11-----10-11-|-----5-6-----13-13--||-----5-5-----13-13----|
|-----11-11-----11-11-|-----6-8-----15-15--||-----6-6-----15-15----|
|---------------------|-------------------o||----------------------|
|---------------------|--------------------||----------------------|


   Verse
    A#5       D#5         C#5       F#5
    E E  Q    E E  Q      E E  Q     E  E Q
||----------------------|---------------------|
||o---------------------|---------------------|
||----------------------|---------------------|
||------------8-8-------|-6-6-------11-11-----|
||o-8-8-------6-6-------|-4-4--------9--9-----|
||--6-6-----------------|---------------------|
|
|   Q    E  E Q    E  E   Q    E  E  Q    E E
||----------------------|---------------------|
||o---------------------|---------------------|
||------10-11-----10-11-|-----10-10-------6-6-|
||------11-11-----11-11-|-----11-11-------8-8-|
||o---------------------|---------------------|
||----------------------|---------------------|


  A#5       D#5         C#5     F#5
  E E  Q    E E  Q      E E Q    E  E  Q
|---------------------|----------------------|
|---------------------|----------------------|
|---------------------|----------------------|
|-----------8-8-------|-6-6-----11-11--------|
|-8-8-------6-6-------|-4-4------9--9--------|
|-6-6-----------------|----------------------|
|
| Q    E  E Q    E  E   Q   E E  Q     E  E
|---------------------|----------------------|
|---------------------|----------------------|
|-----10-11-----10-11-|-----5-6-------13-13--|
|-----11-11-----11-11-|-----6-8-------15-15--|
|---------------------|----------------------|
|---------------------|----------------------|


  A#5       D#5         C#5       F#5
  E E  Q    E E  Q      E E  Q     E  E Q
|---------------------|---------------------|
|---------------------|---------------------|
|---------------------|---------------------|
|-----------8-8-------|-6-6-------11-11-----|
|-8-8-------6-6-------|-4-4--------9--9-----|
|-6-6-----------------|---------------------|
|
| Q    E  E Q    E  E   Q    E  E  Q    E E
|---------------------|---------------------|
|---------------------|---------------------|
|-----10-11-----10-11-|-----10-10-------6-6-|
|-----11-11-----11-11-|-----11-11-------8-8-|
|---------------------|---------------------|
|---------------------|---------------------|


                       1.,2.                   3.
  A#5       D#5         C#5     F#5             C#5     G#5
  E E  Q    E E  Q      E E Q    E  E  Q     3x E E Q   E E Q
|---------------------|----------------------||-----------------|
|---------------------|---------------------o||-----------------|
|---------------------|----------------------||-----------------|
|-----------8-8-------|-6-6-----11-11--------||-6-6-------------|
|-8-8-------6-6-------|-4-4------9--9-------o||-4-4-----6-6-----|
|-6-6-----------------|----------------------||---------4-4-----|
|
| Q    E  E Q    E  E   Q   E E  Q     E  E  3x Q   E E E E E E
|---------------------|----------------------||-----------------|
|---------------------|---------------------o||-----------------|
|-----10-11-----10-11-|-----5-5-------13-13--||-----5-5-5-5-5-5-|
|-----11-11-----11-11-|-----6-6-------15-15--||-----6-6-6-6-6-6-|
|---------------------|---------------------o||-----------------|
|---------------------|----------------------||-----------------|


   Chorus
    A#m
     E  E  E  E  E  E  E  E    E  E  E  E  E  E  E  E
||--------------------------|---------------------------|
||o-------------------------|---------------------------|
||--------------------------|---------------------------|
||---8--8--8--8--8--8--8--8-|--8--8--8--8--8-10-10-10---|
||o--x--x--x--x--x--x--x--x-|--x--x--x--x--x--x--x--x---|
||---6--6--6--6--6--6--6--6-|--6--6--6--6--6--8--8--8---|
|
|    E  E  E  E  E  E  E  E    E  E  E  E  E  E  E  S S
||--------------------------|---------------------------|
||o-------------------------|---------------------------|
||--13-13-13-13-13-13-13-13-|-13-13-13-13-13-13-13--x-x-|
||---x--x--x--x--x--x--x--x-|--x--x--x--x--x--x--x--x-x-|
||o-11-11-11-11-11-11-11-11-|-11-11-11-11-11-11-11--x-x-|
||--------------------------|---------------------------|
|
|   Gtr III
|    W                         W
||--------------------------|---------------------------|
||o-------------------------|---------------------------|
||--------------------------|---------------------------|
||--------------------------|---------------------------|
||o-------------------------|---------------------------|
||--------------------------|---------------------------|


  C#
   E  E  E  E  E  E  E  E       E  E   E   E   Q      Q
|----------------------------|------------------------------|
|----------------------------|------------------------------|
|----------------------------|----------------11-----10-----|
|-11-11-11-11-11-11-11-11----|-11-11--11---x---x------x-----|
|--x--x--x--x--x--x--x--x----|--x--x---x---x---9------8-----|
|--9--9--9--9--9--9--9--9----|--9--9---9---x----------------|
|
|  E  E  E  E  E  E  E  S  S    E  E   E   E   E   E  E  E
|----------------------------|------------------------------|
|----------------------------|------------------------------|
|-13-13-13-13-13-13-13--x--x-|-10-10--10--10--10---8--8--x--|
|--x--x--x--x--x--x--x--x--x-|--x--x---x---x---x---x--x--x--|
|-11-11-11-11-11-11-11--x--x-|--8--8---8---8---8---6--6--x--|
|----------------------------|------------------------------|
|
|  Q     Q     Q     E  S  S    E  E  +E   E  +E   E  E  E
|----------------------------|------------------------------|
|----------------------13-13-|-13--------------------11-----|
|----------------------------|----13-(13)-10-(10)-13----13--|
|----------------------------|------------------------------|
|----------------------------|------------------------------|
|----------------------------|------------------------------|


  A#m
    E   E  E  E  E  E  E  E    E  E  E  E  E  E  E S S
|---------------------------|--------------------------|
|---------------------------|--------------------------|
|---------------------------|-----------------8--8-x-x-|
|---8---8--8--8--8--8--8--8-|--8--8--8--8--8--x--x-x-x-|
|---x---x--x--x--x--x--x--x-|--x--x--x--x--x--6--6-x-x-|
|---6---6--6--6--6--6--6--6-|--6--6--6--6--6-----------|
|
|   E   E  E  E  E  E  E  E    E  E  E  E  E  E  E E
|---------------------------|--------------------------|
|---------------------------|--------------------------|
|--13--13-13-13-13-13-13-13-|-13-13-13-13-13-11-11-x---|
|---x---x--x--x--x--x--x--x-|--x--x--x--x--x--x--x-x---|
|--11--11-11-11-11-11-11-11-|-11-11-11-11-11--9--9-x---|
|---------------------------|--------------------------|
|
|  +W                          W
|---------------------------|--------------------------|
|---------------------------|--------------------------|
|-(13)----------------------|--------------------------|
|---------------------------|--------------------------|
|---------------------------|--------------------------|
|---------------------------|--------------------------|


                           1.                    2.
  F#5                                             F#5
   E  E  E  E  E  E  E  E    E  E Q   E  E Q       E  E Q   E  E Q
|-------------------------|--------------------||---------------------|
|-------------------------|-------------------o||---------------------|
|--6--6--6--6--6--6--6--6-|--6--6-----6--6-----||--6--6-----6--6------|
|--x--x--x--x--x--x--x--x-|--x--x-----x--x-----||--x--x-----x--x------|
|--4--4--4--4--4--4--4--4-|--4--4-----4--4----o||--4--4-----4--4------|
|-------------------------|--------------------||---------------------|
|
|  E  E  E  E  E  E  E  E    E  E Q   E  E Q       E  E Q   E  E Q
|-------------------------|--------------------||---------------------|
|-------------------------|-------------------o||---------------------|
|-13-13-13-13-13-13-13-13S|=11-11----13-13-----||-11-11----10-10------|
|--x--x--x--x--x--x--x--x-|--x--x-----x--x-----||--x--x-----x--x------|
|-11-11-11-11-11-11-11-11S|==9--9----11-11----o||--9--9-----8--8------|
|-------------------------|--------------------||---------------------|
|
|  W                         W                     W
|-------------------------|--------------------||---------------------|
|-------------------------|-------------------o||---------------------|
|-------------------------|--------------------||---------------------|
|-------------------------|--------------------||---------------------|
|-------------------------|-------------------o||---------------------|
|-------------------------|--------------------||---------------------|


 Verse 2
  A#5       D#5         C#5       F#5
  E E  Q    E E  Q      E E  Q     E  E Q
|---------------------|---------------------|
|---------------------|---------------------|
|---------------------|---------------------|
|-----------8-8-------|-6-6-------11-11-----|
|-8-8-------6-6-------|-4-4--------9--9-----|
|-6-6-----------------|---------------------|
|
| Q    E  E Q    E  E   Q    E  E  Q    E E
|---------------------|---------------------|
|---------------------|---------------------|
|-----10-11-----10-11-|-----10-10-------6-6-|
|-----11-11-----11-11-|-----11-11-------8-8-|
|---------------------|---------------------|
|---------------------|---------------------|


  A#5       D#5         C#5     F#5
  E E  Q    E E  Q      E E Q    E  E  Q
|---------------------|---------------------|
|---------------------|---------------------|
|---------------------|---------------------|
|-----------8-8-------|-6-6-----11-11-------|
|-8-8-------6-6-------|-4-4------9--9-------|
|-6-6-----------------|---------------------|
|
| Q    E  E Q    E  E   Q   E E  Q     E  E
|---------------------|---------------------|
|---------------------|---------------------|
|-----10-11-----10-11-|-----5-6-------13-13-|
|-----11-11-----11-11-|-----6-8-------15-15-|
|---------------------|---------------------|
|---------------------|---------------------|


  A#5       D#5         C#5       F#5
  E E  Q    E E  Q      E E  Q     E  E Q
|---------------------|---------------------|
|---------------------|---------------------|
|---------------------|---------------------|
|-----------8-8-------|-6-6-------11-11-----|
|-8-8-------6-6-------|-4-4--------9--9-----|
|-6-6-----------------|---------------------|
|
| Q    E  E Q    E  E   Q    E  E  Q    E E
|---------------------|---------------------|
|---------------------|---------------------|
|-----10-11-----10-11-|-----10-10-------6-6-|
|-----11-11-----11-11-|-----11-11-------8-8-|
|---------------------|---------------------|
|---------------------|---------------------|


  A#5       D#5         C#5     F#5
  E E  Q    E E  Q      E E Q    E  E  Q
|---------------------|---------------------|
|---------------------|---------------------|
|---------------------|---------------------|
|-----------8-8-------|-6-6-----11-11-------|
|-8-8-------6-6-------|-4-4------9--9-------|
|-6-6-----------------|---------------------|
|
| Q    E  E Q    E  E   Q   E E  Q     E  E
|---------------------|---------------------|
|---------------------|---------------------|
|-----10-11-----10-11-|-----5-5-------13-13-|
|-----11-11-----11-11-|-----6-6-------15-15-|
|---------------------|---------------------|
|---------------------|---------------------|


  A#5        D#5                      C#5         F#5
  E  E  Q    E          E    Q         E  E  Q     E  E Q
|-----------------------------------|------------------------|
|-----------------------------------|------------------------|
|-----------------------------------|------------------------|
|------------8----------8-----------|--6--6-------11-11------|
|-8--8-------6----------6-----------|--4--4--------9--9------|
|-6--6------------------------------|------------------------|
|
| Q     E  E Q               E    E    Q     E  E  Q    E  E
|-----------------------------------|------------------------|
|-----------------------------------|------------------------|
|------10-11----------------10---11-|-------10-10-------6--6-|
|------11-11----------------11---11-|-------11-11-------8--8-|
|-----------------------------------|------------------------|
|-----------------------------------|------------------------|
|
| Gtr III
| E  E  E  E E  a       E   +E    e    E  E  E  E  E  E E  E
|-----------------------------------|------------------------|
|---14----14------------9-----------|-14-14----14----16---14-|
|---13----13---10b11==(10)-(10)r-10-|-13-13----13----15---13-|
|-----------------------------------|------------------------|
|-----------------------------------|------------------------|
|-----------------------------------|------------------------|


  A#5           D#5         C#5        F#5
    E   E  Q    E E  Q       E  E Q     E  E  Q
|-------------------------|-------------------------|
|-------------------------|-------------------------|
|-------------------------|-------------------------|
|---------------8-8-------|--6--6------11-11--------|
|---8---8-------6-6-------|--4--4-------9--9--------|
|---6---6-----------------|-------------------------|
|
|   Q      E  E Q    E  E    Q    E  E  Q     E  E
|-------------------------|-------------------------|
|-------------------------|-------------------------|
|---------10-11-----10-11-|-------5--6-------13-13--|
|---------11-11-----11-11-|-------6--8-------15-15--|
|-------------------------|-------------------------|
|-------------------------|-------------------------|
|
|  +E   E  E  E E E  E  E    E  E E  E  E  E  E  E
|-------------------------|-------------------------|
|-(14)-14-14-14---9--9----|-14-14---14----16----14--|
|-(13)-15-15-13---8-10----|-13-13---13----15----13--|
|----------------------11-|-------------------------|
|-------------------------|-------------------------|
|-------------------------|-------------------------|


  A#5           D#5                      C#5         F#5
    E   E  Q    E          E    Q         E  E  Q     E  E Q
|--------------------------------------|------------------------|
|--------------------------------------|------------------------|
|--------------------------------------|------------------------|
|---------------8----------8-----------|--6--6-------11-11------|
|---8---8-------6----------6-----------|--4--4--------9--9------|
|---6---6------------------------------|------------------------|
|
|   Q      E  E Q               E    E    Q     E  E  Q    E  E
|--------------------------------------|------------------------|
|--------------------------------------|------------------------|
|---------10-11----------------10---11-|-------10-10-------6--6-|
|---------11-11----------------11---11-|-------11-11-------8--8-|
|--------------------------------------|------------------------|
|--------------------------------------|------------------------|
|
|  +E   E  E  E E  a       E   +E    e    E  E  E  E  E  E E  E
|--------------------------------------|------------------------|
|-(14)-14----14------------9-----------|-14-14----14----16---14-|
|-(13)-13----13---10b11==(10)-(10)r-10-|-13-13----13----15---13-|
|--------------------------------------|------------------------|
|--------------------------------------|------------------------|
|--------------------------------------|------------------------|


  A#5           D#5         C#5         G#5
    E   E  Q    E E  Q       E  E  Q     E  E  Q
|-------------------------|-------------------------|
|-------------------------|-------------------------|
|-------------------------|-------------------------|
|---------------8-8-------|--6--6-------------------|
|---8---8-------6-6-------|--4--4--------6--6-------|
|---6---6-----------------|--------------4--4-------|
|
|   Q      E  E Q    E  E    Q     E  E  E  E  E E
|-------------------------|-------------------------|
|-------------------------|-------------------------|
|---------10-11-----10-11-|--------5--5--5--5--5-5--|
|---------11-11-----11-11-|--------6--6--6--6--6-6--|
|-------------------------|-------------------------|
|-------------------------|-------------------------|
|
|  +E   E  E  E E E  E  E    E  E  E  E  E  E  Q
|-------------------------|-------------------------|
|-(14)-14-14-14---9--9----|-14-14-14s16-16-16-16----|
|-(13)-15-15-13---8-10----|-13-13-13s15-15-15-15----|
|----------------------11-|-------------------------|
|-------------------------|-------------------------|
|-------------------------|-------------------------|


   2nd Chorus
    A#m
     E  E  E  E  E  E  E  E    E  E  E  E  E  E  E  E
||--------------------------|---------------------------|
||o-------------------------|---------------------------|
||--------------------------|---------------------------|
||---8--8--8--8--8--8--8--8-|--8--8--8--8--8-10-10-10---|
||o--x--x--x--x--x--x--x--x-|--x--x--x--x--x--x--x--x---|
||---6--6--6--6--6--6--6--6-|--6--6--6--6--6--8--8--8---|
|
|    E  E  E  E  E  E  E  E    E  E  E  E  E  E  E  S S
||--------------------------|---------------------------|
||o-------------------------|---------------------------|
||--13-13-13-13-13-13-13-13-|-13-13-13-13-13-13-13--x-x-|
||---x--x--x--x--x--x--x--x-|--x--x--x--x--x--x--x--x-x-|
||o-11-11-11-11-11-11-11-11-|-11-11-11-11-11-11-11--x-x-|
||--------------------------|---------------------------|
|
|   Gtr III
|    W                         W
||--------------------------|---------------------------|
||o-------------------------|---------------------------|
||--------------------------|---------------------------|
||--------------------------|---------------------------|
||o-------------------------|---------------------------|
||--------------------------|---------------------------|


  C#
   E  E  E  E  E  E  E  E       E  E   E   E   Q      Q
|----------------------------|------------------------------|
|----------------------------|------------------------------|
|----------------------------|----------------11-----10-----|
|-11-11-11-11-11-11-11-11----|-11-11--11---x---x------x-----|
|--x--x--x--x--x--x--x--x----|--x--x---x---x---9------8-----|
|--9--9--9--9--9--9--9--9----|--9--9---9---x----------------|
|
|  E  E  E  E  E  E  E  S  S    E  E   E   E   E   E  E  E
|----------------------------|------------------------------|
|----------------------------|------------------------------|
|-13-13-13-13-13-13-13--x--x-|-10-10--10--10--10---8--8--x--|
|--x--x--x--x--x--x--x--x--x-|--x--x---x---x---x---x--x--x--|
|-11-11-11-11-11-11-11--x--x-|--8--8---8---8---8---6--6--x--|
|----------------------------|------------------------------|
|
|  Q     Q     Q     E  S  S    E  E  +E   E  +E   E  E  E
|----------------------------|------------------------------|
|----------------------13-13-|-13--------------------11-----|
|----------------------------|----13-(13)-10-(10)-13----13--|
|----------------------------|------------------------------|
|----------------------------|------------------------------|
|----------------------------|------------------------------|


  A#m
   E  E  E  E  E  E  E  E    E  E  E  E  E  E  E S S
|-------------------------|--------------------------|
|-------------------------|--------------------------|
|-------------------------|-----------------8--8-x-x-|
|--8--8--8--8--8--8--8--8-|--8--8--8--8--8--x--x-x-x-|
|--x--x--x--x--x--x--x--x-|--x--x--x--x--x--6--6-x-x-|
|--6--6--6--6--6--6--6--6-|--6--6--6--6--6-----------|
|
|  E  E  E  E  E  E  E  E    E  E  E  E  E  E  E E
|-------------------------|--------------------------|
|-------------------------|--------------------------|
|-13-13-13-13-13-13-13-13-|-13-13-13-13-13-11-11-x---|
|--x--x--x--x--x--x--x--x-|--x--x--x--x--x--x--x-x---|
|-11-11-11-11-11-11-11-11-|-11-11-11-11-11--9--9-x---|
|-------------------------|--------------------------|
|
|  W                         W
|-------------------------|--------------------------|
|-------------------------|--------------------------|
|-13----------------------|--------------------------|
|-------------------------|--------------------------|
|-------------------------|--------------------------|
|-------------------------|--------------------------|


                           1.                    2.
  F#5                                             F#5
   E  E  E  E  E  E  E  E    E  E Q   E  E Q       E  E  E  E  E  E  E  E
|-------------------------|--------------------||---------------------------|
|-------------------------|-------------------o||---------------------------|
|--6--6--6--6--6--6--6--6-|--6--6-----6--6-----||--6--6--6--6--6--6--6--6---|
|--x--x--x--x--x--x--x--x-|--x--x-----x--x-----||--x--x--x--x--x--x--x--x---|
|--4--4--4--4--4--4--4--4-|--4--4-----4--4----o||--4--4--4--4--4--4--4--4---|
|-------------------------|--------------------||---------------------------|
|
|  E  E  E  E  E  E  E  E    E  E Q   E  E Q       E  E  E  E  E  E  E  E
|-------------------------|--------------------||---------------------------|
|-------------------------|-------------------o||---------------------------|
|-13-13-13-13-13-13-13-13S|=11-11----13-13-----||-11-11-11-11-10-10-10-10---|
|--x--x--x--x--x--x--x--x-|--x--x-----x--x-----||--x--x--x--x--x--x--x--x---|
|-11-11-11-11-11-11-11-11S|==9--9----11-11----o||--9--9--9--9--8--8--8--8---|
|-------------------------|--------------------||---------------------------|
|
|  W                         W                     W
|-------------------------|--------------------||---------------------------|
|-------------------------|-------------------o||---------------------------|
|-------------------------|--------------------||---------------------------|
|-------------------------|--------------------||---------------------------|
|-------------------------|-------------------o||---------------------------|
|-------------------------|--------------------||---------------------------|


   Bridge
    F#5                         E#5
     E  E  E  E  E  E  E  S S    E  E  E  E  E  E  E  E
||----------------------------|-------------------------|
||o---------------------------|-------------------------|
||----------------------------|-------------------------|
||---4--4--4--4--4--4--4--x-x-|--3--3--3--3--3--3--3--3S|
||o--x--x--x--x--x--x--x--x-x-|--x--x--x--x--x--x--x--x-|
||---2--2--2--2--2--2--2--x-x-|--1--1--1--1--1--1--1--1S|
|
|    E  E  E  E  E  E  E  E      E  E  E  E  E  E  E  E
||----------------------------|-------------------------|
||o---------------------------|-------------------------|
||----------------------------|-------------------------|
||--11-11-11-11-11-11-11-11---|-10-10-10-10-------------|
||o---------------------------|-------------11-11-11-11-|
||----------------------------|-------------------------|


  A#5
   E  E  E  E  E  E  E  E    E  E  E  E  E  E  E  E
|-------------------------|--------------------------||
|-------------------------|-------------------------o||
|-------------------------|--------------------------||
|--8--8--8--8--8--8--8--8-|--8--8--8--8--8--8--8--x--||
|--x--x--x--x--x--x--x--x-|--x--x--x--x--x--x--x--x-o||
|--6--6--6--6--6--6--6--6-|--6--6--6--6--6--6--6--x--||
|
|  E  E  E  E  E  E  E  E    E  E  E  E  E  E  E  E
|-------------------------|--------------------------||
|-------------------------|-------------------------o||
|-------------------------|--------------------------||
|-11-11-11-11-11-11-11-11-|-10-10-10-10--------------||
|-------------------------|-------------11-11-11-11-o||
|-------------------------|--------------------------||


    F#5                 E#5
    E E E E E E E S S   E  E   E  E  E  E E E
||--------------------|-----------------------|
||o-------------------|-----------------------|
||--------------------|-----------------------|
||--4-4-4-4-4-4-4-x-x-|-3--3---3--3--3--3-3-3S|
||o-x-x-x-x-x-x-x-x-x-|-x--x---x--x--x--x-x-x-|
||--2-2-2-2-2-2-2-x-x-|-1--1---1--1--1--1-1-1S|
|
|   E E E E E E E E     E  E  +E  E +E  E E E
||--------------------|-----------------------|
||o-------------------|-----------------------|
||--6s8-8-8-8-8-8-8---|-8s10-(10)-6-(6)-6-6-6-|
||--x-x-x-x-x-x-x-x---|-x--x------x-(x)-x-x-x-|
||o-4s6-6-6-6-6-6-6---|-6s=8--(8)-4-(4)-4-4-4-|
||--------------------|-----------------------|


  A#5
  E E E E E E E E   E  E   E  E  E  E E E
|-----------------|------------------------||
|-----------------|-----------------------o||
|-----------------|------------------------||
|-8-8-8-8-8-8-8-8-|-8--8---8--8--8--8-8-x--||
|-x-x-x-x-x-x-x-x-|-x--x---x--x--x--x-x-x-o||
|-6-6-6-6-6-6-6-6-|-6--6---6--6--6--6-6-x--||
|
| E E E E E E E E   E  E  +E  E +E  E E E
|-----------------|------------------------||
|-----------------|-----------------------o||
|-6s8-8-8-8-8-8-8-|-8s10-(10)-6-(6)-6-6-6--||
|-x-x-x-x-x-x-x-x-|-x--x------x-(x)-x-x-x--||
|-4s6-6-6-6-6-6-6-|-6s=8--(8)-4-(4)-4-4-4-o||
|-----------------|------------------------||


 Outro
  A#5       D#5         C#5       F#5
  E E  Q    E E  Q      E E  Q     E  E Q
|---------------------|---------------------|
|---------------------|---------------------|
|---------------------|---------------------|
|-----------8-8-------|-6-6-------11-11-----|
|-8-8-------6-6-------|-4-4--------9--9-----|
|-6-6-----------------|---------------------|
|
| Q    E  E Q    E  E   Q    E  E  Q    E E
|---------------------|---------------------|
|---------------------|---------------------|
|-----10-11-----10-11-|-----10-10-------6-6-|
|-----11-11-----11-11-|-----11-11-------8-8-|
|---------------------|---------------------|
|---------------------|---------------------|


  A#5       D#5         C#5     F#5
  E E  Q    E E  Q      E E Q    E  E  Q
|---------------------|---------------------|
|---------------------|---------------------|
|---------------------|---------------------|
|-----------8-8-------|-6-6-----11-11-------|
|-8-8-------6-6-------|-4-4------9--9-------|
|-6-6-----------------|---------------------|
|
| Q    E  E Q    E  E   Q   E E  Q     E  E
|---------------------|---------------------|
|---------------------|---------------------|
|-----10-11-----10-11-|-----5-6-------13-13-|
|-----11-11-----11-11-|-----6-8-------15-15-|
|---------------------|---------------------|
|---------------------|---------------------|


  A#5       D#5         C#5       F#5
  E E  Q    E E  Q      E E  Q     E  E Q
|---------------------|---------------------|
|---------------------|---------------------|
|---------------------|---------------------|
|-----------8-8-------|-6-6-------11-11-----|
|-8-8-------6-6-------|-4-4--------9--9-----|
|-6-6-----------------|---------------------|
|
| Q    E  E Q    E  E   Q    E  E  Q    E E
|---------------------|---------------------|
|---------------------|---------------------|
|-----10-11-----10-11-|-----10-10-------6-6-|
|-----11-11-----11-11-|-----11-11-------8-8-|
|---------------------|---------------------|
|---------------------|---------------------|


  A#5       D#5         C#5     F#5
  E E  Q    E E  Q      E E Q    E  E  Q
|---------------------|---------------------|
|---------------------|---------------------|
|---------------------|---------------------|
|-----------8-8-------|-6-6-----11-11-------|
|-8-8-------6-6-------|-4-4------9--9-------|
|-6-6-----------------|---------------------|
|
| Q    E  E Q    E  E   Q   E E  Q     E  E
|---------------------|---------------------|
|---------------------|---------------------|
|-----10-11-----10-11-|-----5-5-------13-13-|
|-----11-11-----11-11-|-----6-6-------15-15-|
|---------------------|---------------------|
|---------------------|---------------------|


  A#5              D#5                   C#5         F#5
  E E  Q             E   E  Q             E  E  Q     E  E  Q
|--------------------------------------|----------------------------|
|--------------------------------------|----------------------------|
|--------------------------------------|----------------------------|
|--------------------8---8-------------|--6--6-------11-11----------|
|-8-8----------------6---6-------------|--4--4--------9--9----------|
|-6-6----------------------------------|----------------------------|
|
| Q    E  E          Q      E      E      Q     E  E  Q     E  E
|--------------------------------------|----------------------------|
|--------------------------------------|----------------------------|
|-----10-11----------------10-----11---|-------10-10--------6--6----|
|-----11-11----------------11-----11---|-------11-11--------8--8----|
|--------------------------------------|----------------------------|
|--------------------------------------|----------------------------|
|
| Gtr III
| E E  E  E  a      +Q      E     +E      E  E  E  E  E  E  E  S  S
|--------------------------------------|----------------------------|
|---x--9s11-13b14==(13)r---------------|----------------------------|
|---x--8s10----------------12b13r(12)\-|-------------------10-10-10-|
|--------------------------------------|-10-10-10-10-10-11----------|
|--------------------------------------|----------------------------|
|--------------------------------------|----------------------------|


  A#5                 D#5                        C#5         F#5
   E E  Q               E   E          Q          E  E  Q     E  E  Q
|----------------------------------------------|--------------------------|
|----------------------------------------------|--------------------------|
|----------------------------------------------|--------------------------|
|-----------------------8---8------------------|--6--6-------11-11--------|
|--8-8------------------6---6------------------|--4--4--------9--9--------|
|--6-6-----------------------------------------|--------------------------|
|
|  Q    E   E           Q              E    E     Q     E  E  Q     E   E
|----------------------------------------------|--------------------------|
|----------------------------------------------|--------------------------|
|------10--11-------------------------10---11--|--------5--6-------13--13-|
|------11--11-------------------------11---11--|--------6--8-------15--15-|
|----------------------------------------------|--------------------------|
|----------------------------------------------|--------------------------|
|
|  E E +E   E   a       E   E  a       E   +E     E  E  E  E  E  E  Q
|----------------------------------------------|--------------------------|
|----------------------11--------------9---(9)-|--------------------------|
|-10-9-(9)--8/-13b15==(13)r---11b13==(11)r(11)-|--------------------------|
|----------------------------------------------|-13-13-13-13-13-11-10/----|
|----------------------------------------------|-13-13-13-13-13-11-11/----|
|----------------------------------------------|--------------------------|


  A#5             D#5           C#5                   F#5
   E   E    Q      E  E  Q       E            E  Q     E            E  Q
|-----------------------------|---------------------------------------------|
|-----------------------------|---------------------------------------------|
|-----------------------------|---------------------------------------------|
|------------------8--8-------|--6------------6-------11-----------11-------|
|--8---8-----------6--6-------|--4------------4--------9------------9-------|
|--6---6----------------------|---------------------------------------------|
|
|  Q        E   E  Q     E  E    Q               E  E  Q               E  E
|-----------------------------|---------------------------------------------|
|-----------------------------|---------------------------------------------|
|----------10--11-------10-11-|-----------------10-10------------------6--6-|
|----------11--11-------11-11-|-----------------11-11------------------8--8-|
|-----------------------------|---------------------------------------------|
|-----------------------------|---------------------------------------------|
|
|  E   E   +E   E  E  E  E  E    S      +S    E  E  E  S       +S   E  E  E
|-----------------------------|---------------------------------------------|
|-16-(16)-(16)----16-------16-|---------------------------------------------|
|--------------13-------13----|-11------------------------------------------|
|-----15--(15)-------15-------|-14b15==(14)rs10-10-10-10b10.5r(10)-10-10-10-|
|-----------------------------|---------------------------------------------|
|-----------------------------|---------------------------------------------|


     A#5         D#5              C#5                              F#5
      E  E  Q     E     E  Q       E       E       Q                E          E  Q
|-------------------------------|--------------------------------------------------------|
|-------------------------------|--------------------------------------------------------|
|-------------------------------|--------------------------------------------------------|
|-----------------8-----8-------|--6-------6-----------------------11---------11---------|
|-----8--8--------6-----6-------|--4-------4------------------------9----------9---------|
|-----6--6----------------------|--------------------------------------------------------|
|
|     Q     E  E  Q        E  E    Q               E         E      Q             E  E
|-------------------------------|--------------------------------------------------------|
|-------------------------------|--------------------------------------------------------|
|----------10-11----------10-11-|------------------5---------5-------------------13-13---|
|----------11-11----------11-11-|------------------6---------6-------------------15-15---|
|-------------------------------|--------------------------------------------------------|
|-------------------------------|--------------------------------------------------------|
|
|  a  E  E  E  E  S  S  E  E  E    E       E       S      S  S  S   S     +S   E  E  E
|-------------------------------|--------------------------------------------------------|
|----14-14-14-14-14-14-14-14-14-|-15b16.5-15b16.5-15b17==15-15-15r-15b17r(15)------------|
|-13h15-13-15-13-15-15-15-15-13-|---------------------------------------------15-15-13---|
|-------------------------------|--------------------------------------------------------|
|-------------------------------|--------------------------------------------------------|
|-------------------------------|--------------------------------------------------------|


  A#5
   H              Q       Q         W                                 W
|-------------------------------|---------------------------------|---------------------------------|
|-------------------------------|---------------------------------|---------------------------------|
|-------------------------------|---------------------------------|---------------------------------|
|-------------------------------|---------------------------------|---------------------------------|
|--8\---------------------------|---------------------------------|---------------------------------|
|--6\---------------------------|---------------------------------|---------------------------------|
|
|  W                                W                                 W
|-------------------------------|---------------------------------|---------------------------------|
|-------------------------------|---------------------------------|---------------------------------|
|-------------------------------|---------------------------------|---------------------------------|
|-------------------------------|---------------------------------|---------------------------------|
|-------------------------------|---------------------------------|---------------------------------|
|-------------------------------|---------------------------------|---------------------------------|
|
|  E  E   E   E   E   E   E   E     E   E   E   E   E   E   E   E     E   E   E   E   E   E   E   E
|-------------------------------|---------------------------------|---------------------------------|
|-------------------------------|---------------------------------|---------------------------------|
|-15\---(15)\---(15)\---(15)\---|-(15)\---(15)\---(15)\---(15)\---|-(15)\---(15)\---(15)\---(15)\---|
|-------------------------------|---------------------------------|---------------------------------|
|-------------------------------|---------------------------------|---------------------------------|
|-------------------------------|---------------------------------|---------------------------------|


    W                                 W
|---------------------------------|---------------------------------*|
|---------------------------------|---------------------------------*|
|---------------------------------|---------------------------------*|
|---------------------------------|---------------------------------*|
|---------------------------------|---------------------------------*|
|---------------------------------|---------------------------------*|
|
|   W                                 W
|---------------------------------|---------------------------------*|
|---------------------------------|---------------------------------*|
|---------------------------------|---------------------------------*|
|---------------------------------|---------------------------------*|
|---------------------------------|---------------------------------*|
|---------------------------------|---------------------------------*|
|
|   E   E   E   E   E   E   E   E     E   E   E   E   E   E   E   E
|---------------------------------|---------------------------------*|
|---------------------------------|---------------------------------*|
|-(15)\---(15)\---(15)\---(15)\---|-(15)\---(15)\---(15)\---(15)\---*|
|---------------------------------|---------------------------------*|
|---------------------------------|---------------------------------*|
|---------------------------------|---------------------------------*|
comments
print report bad tab
5 comments total. Showing first comments.
0 reply
T_R_A_P_T wrote on March 14 2006, 12:01 am

wrong

0 reply
OttovanZanten wrote on April 6 2006, 09:24 am

played with 1 guitar? or 2?

0 reply
emberlylp wrote on April 16 2006, 07:35 am

errrmm???

I want to post or [tab]
guest
You may want to rate the tab now too:
select rating
Please do not post tabs as comments. Select "correction" instead!