Oops, an error
Loading. Please wait.

Cavaliers And Roundheads Bass Tab

ver1
ver1

Whole song

Interactive

More versions @911Tabs.com
494 views 1 this week
no commentswrite comment
1 2 3 4 5
accurate
x 1
Autoscroll
+/-
esc
set tempo
stop
Hey! There's an official Ultimate Guitar app which is ideal
for learning songs when you're away from computer. Get the app
WARNING: You are trying to view
                                    content from Ultimate-Guitar.com
                                    in an unauthorized application,
                                    which is prohibited.

                                    Please use an official Ultimate
                                    Guitar Tabs application for iPhone,
                                    iPad or Android to access legitimate
                                    chords, guitar, bass, and drum tabs
                                    from Ultimate-Guitar.com database.

                                    Type "ultimate guitar tabs" in Apple
                                    App Store's or Android Market's
                                    search to find the application.
Band: Bloc Party
Song: Cavaliers and Roundheads



     E  E  Q    E  E  Q               E  E  Q    E  E  Q             
G||------------------------|-------|------------------------|-------|
D||-------------2--3-------|-------|-------------2--3-------|-------|
A||--5--5--0---------------|-------|--5--5--0---------------|-------|
E||------------------------|-------|------------------------|-------|


  E  E  Q    E  E  Q               E  E  Q    E  E  Q             
------------------------|-------|------------------------|-------|
-------------2--3-------|-------|-------------2--3-------|-------|
--5--5--0---------------|-------|--5--5--0---------------|-------|
------------------------|-------|------------------------|-------|


  E  E  Q    E  E  Q               E  E  Q    E  E  Q             
--------5---------------|-------|--3--3--2---------------|-------|
-------------2--3-------|-------|-------------5--3-------|-------|
--5--5------------------|-------|------------------------|-------|
------------------------|-------|------------------------|-------|


  E  E  Q    E  E  Q               E  E  Q    E  E  Q             
--------5---------------|-------|------------------------|-------|
-------------2--3-------|-------|--------3----3--5-------|-------|
--5--5------------------|-------|--3--3------------------|-------|
------------------------|-------|------------------------|-------|


  E  E  Q    E  E  Q               E  E  Q    E  E  Q             
--------5---------------|-------|--3--3--2---------------|-------|
-------------2--3-------|-------|-------------5--3-------|-------|
--5--5------------------|-------|------------------------|-------|
------------------------|-------|------------------------|-------|


  E  E  Q    E  E  Q       H        E  E  Q       E  E  Q    E  E  Q     
--------5---------------|-----------3--3--2----|------------------------|
-------------2--3-------|----------------------|--------3----3--5-------|
--5--5------------------|----------------------|--3--3------------------|
------------------------|----------------------|------------------------|


  H        Q    Q       E  E  Q    E  E  Q               E  E  Q    E  E  Q     
---------------------|--------5---------------|-------|--3--3--2---------------|
-----------3----2----|-------------2--3-------|-------|-------------5--3-------|
---------------------|--5--5------------------|-------|------------------------|
---------------------|------------------------|-------|------------------------|


          E  E  Q    E  E  Q               E  E  Q    E  E  Q             
-------|--------5---------------|-------|------------------------|-------|
-------|-------------2--3-------|-------|--------3----3--5-------|-------|
-------|--5--5------------------|-------|--3--3------------------|-------|
-------|------------------------|-------|------------------------|-------|


  E  E  Q    E  E  Q               E  E  Q    E  E  Q             
--------5---------------|-------|--3--3--2---------------|-------|
-------------2--3-------|-------|-------------5--3-------|-------|
--5--5------------------|-------|------------------------|-------|
------------------------|-------|------------------------|-------|


  E  E  Q    E  E  Q       H        E  E  Q       E  E  Q    E  E  Q     
--------5---------------|-----------3--3--2----|------------------------|
-------------2--3-------|----------------------|--------3----3--5-------|
--5--5------------------|----------------------|--3--3------------------|
------------------------|----------------------|------------------------|


  H        Q    Q       E  E  E  E  E  E  E  E     E  E  E  E  E  E  E  E   
---------------------|--------------------------|--------------------------|
-----------3----2----|--------------------------|--------------------------|
---------------------|--1--1--1--1--1--1--8--8--|--3--3--3--3--3--3--8--8--|
---------------------|--------------------------|--------------------------|


  E  E  E  E  E  E  E  E     E  E  E  E  E  E  E  E   
--------------------------|--------------------------|
--------------------------|--------------------------|
--5--5--5--5--5--5--8--8--|--0--0--0--0--0--0--8--8--|
--------------------------|--------------------------|


  E  E  E  E  E  E  E  E     E  E  E  E  E  E  E  E   
--------------------------|--------------------------|
--------------------------|--------------------------|
--1--1--1--1--1--1--8--8--|--3--3--3--3--3--3--8--8--|
--------------------------|--------------------------|


  E  E  E  E  E  E  E  E     E  E  E  E  E  E  E  E   
--------------------------|--------------------------|
--------------------------|--------------------------|
--------------------8--8--|--------------------------|
--3--3--3--3--3--3--------|--5--5--5--5--6--6--8--8--|


  E  E  E  E  E  E  E  E     E  E  E  E  E  E  E  E   
--------------------------|--------------------------|
--------------------3--3--|--------------------------|
--5--5--------------------|-----3--3-----3-----5-----|
-----------5--5-----------|--------------------------|


  E  E  E  E  E  E  E  E     E  E  E  E  E  E  E  E   
--------------------------|--------------------------|
--------------------3--3--|--------------------------|
--5--5--------------------|-----3--3-----3-----5-----|
-----------5--5-----------|--------------------------|


  E  E  E  E  E  E  E  E     E  E  E  E  E  E  E  E   
--------------------------|--------------------------|
--------------------3--3--|--------------------------|
--5--5--------------------|-----3--3-----3-----5-----|
-----------5--5-----------|--------------------------|


  E  E  E  E  E  E  E  E     E  E  E  E  E  E  E  E   
--------------------------|--------------------------|
--------------------3--3--|--------------------------|
--5--5--------------------|-----3--3-----3-----5-----|
-----------5--5-----------|--------------------------|


  E  E  E  E  E  E  E  E     E  E  E  E  E  E  E  E   
--------------------------|--------------------------|
--------------------3--3--|--------------------------|
--5--5--------------------|-----3--3-----3-----5-----|
-----------5--5-----------|--------------------------|


  E  E  E  E  E  E  E  E     E  E  E  E  E  E  E  E   
--------------------------|--------------------------|
--------------------3--3--|--------------------------|
--5--5--------------------|-----3--3-----3-----5-----|
-----------5--5-----------|--------------------------|


  E  E  E  E  E  E  E  E     E  E  E  E  E  E  E  E     E  E  Q    E  E  Q     
--------------------------|--------------------------|------------------------|
--------------------3--3--|--------------------------|------------------------|
--5--5--------------------|-----3--3-----3-----5-----|------------------------|
-----------5--5-----------|--------------------------|--3--3-------3--3-------|


  E  E  Q    E  E  Q       E  E  Q    E  E  Q             
------------------------|--------5---------------|-------|
------------------------|-------------2--3-------|-------|
--1--1-------1--1-------|--5--5------------------|-------|
------------------------|------------------------|-------|


  E  E  Q    E  E  Q               E  E  Q    E  E  Q             
--------2---------------|-------|--------5---------------|-------|
-------------5--3-------|-------|-------------2--3-------|-------|
--1--1------------------|-------|--5--5------------------|-------|
------------------------|-------|------------------------|-------|


  E  E  Q    E  E  Q               E  E  Q    E  E  Q             
------------------------|-------|--------5---------------|-------|
--------3----3--5-------|-------|-------------2--3-------|-------|
--3--3------------------|-------|--5--5------------------|-------|
------------------------|-------|------------------------|-------|


  E  E  Q    E  E  Q               E  E  Q    E  E  Q     
--------2---------------|-------|--------5---------------|
-------------5--3-------|-------|-------------2--3-------|
--1--1------------------|-------|--5--5------------------|
------------------------|-------|------------------------|


  H        E  E  Q       E  E  Q    E  E  Q       H        Q    Q     
-----------3--3--2----|------------------------|---------------------|
----------------------|--------3----3--5-------|-----------3----2----|
----------------------|--3--3------------------|---------------------|
----------------------|------------------------|---------------------|


  E  E  E  E  E  E  E  E     E  E  E  E  E  E  E  E   
--------------------------|--------------------------|
--------------------------|--------------------------|
--1--1--1--1--1--1--8--8--|--3--3--3--3--3--3--8--8--|
--------------------------|--------------------------|


  E  E  E  E  E  E  E  E     E  E  E  E  E  E  E  E   
--------------------------|--------------------------|
--------------------------|--------------------------|
--5--5--5--5--5--5--8--8--|--0--0--0--0--0--0--8--8--|
--------------------------|--------------------------|


  E  E  E  E  E  E  E  E     E  E  E  E  E  E  E  E   
--------------------------|--------------------------|
--------------------------|--------------------------|
--1--1--1--1--1--1--8--8--|--3--3--3--3--3--3--8--8--|
--------------------------|--------------------------|


  E  E  E  E  E  E  E  E     E  E  E  E  E  E  E  E   
--------------------------|--------------------------|
--------------------------|--------------------------|
--------------------8--8--|--------------------------|
--3--3--3--3--3--3--------|--5--5--5--5--6--6--8--8--|


  E  E  E  E  E  E  E  E     E  E  E  E  E  E  E  E   
--------------------------|--------------------------|
--------------------3--3--|--------------------------|
--5--5--------------------|-----3--3-----3-----5-----|
-----------5--5-----------|--------------------------|


  E  E  E  E  E  E  E  E     E  E  E  E  E  E  E  E   
--------------------------|--------------------------|
--------------------3--3--|--------------------------|
--5--5--------------------|-----3--3-----3-----5-----|
-----------5--5-----------|--------------------------|


  E  E  E  E  E  E  E  E     E  E  E  E  E  E  E  E   
--------------------------|--------------------------|
--------------------3--3--|--------------------------|
--5--5--------------------|-----3--3-----3-----5-----|
-----------5--5-----------|--------------------------|


  E  E  E  E  E  E  E  E     E  E  E  E  E  E  E  E   
--------------------------|--------------------------|
--------------------3--3--|--------------------------|
--5--5--------------------|-----3--3-----3-----5-----|
-----------5--5-----------|--------------------------|


  E  E  E  E  E  E  E  E     E  E  E  E  E  E  E  E   
--------------------------|--------------------------|
--------------------3--3--|--------------------------|
--5--5--------------------|-----3--3-----3-----5-----|
-----------5--5-----------|--------------------------|


  E  E  E  E  E  E  E  E     E  E  E  E  E  E  E  E   
--------------------------|--------------------------|
--------------------3--3--|--------------------------|
--5--5--------------------|-----3--3-----3-----5-----|
-----------5--5-----------|--------------------------|


  E  E  E  E  E  E  E  E     E  E  E  E  E  E  E  E     E  E  Q    E  E  Q     
--------------------------|--------------------------|------------------------|
--------------------3--3--|--------------------------|------------------------|
--5--5--------------------|-----3--3-----3-----5-----|------------------------|
-----------5--5-----------|--------------------------|--3--3-------3--3-------|


  E  E  Q    E  E  Q       E.  S E  Q    Q    E     Q    H.            
------------------------|------------------------|--------------------|
------------------------|------------------------|--------------------|
--1--1-------1--1-------|--5---5-5--5----5----5--|--L-----------------|
------------------------|------------------------|--------------------|


  E.  S E  Q    Q    E     Q    H.              E.  S E  Q    Q    E   
------------------------|--------------------|------------------------|
------------------------|--------------------|------------------------|
--5---5-5--5----5----5--|--L-----------------|--5---5-5--5----5----5--|
------------------------|--------------------|------------------------|


  Q    H.              E.  S E  Q    Q    E     Q    H.            
--------------------|------------------------|--------------------|
--------------------|------------------------|--------------------|
--L-----------------|--5---5-5--5----5----5--|--L-----------------|
--------------------|------------------------|--------------------|


  E  E  E  E  E  E  E  E     E  E  E  E  E  E  E  E   
--------------------------|--------------------------|
--------------------------|--------------------------|
--5--5-----5--5-----5--5--|-----5--5-----5-----5-----|
--------------------------|--------------------------|


  E  E  E  E  E  E  E  E     E  E  E  E  E  E  E  E   
--------------------------|--------------------------|
--------------------------|--------------------------|
--8--8-----8--8-----8--8--|-----8--8-----8-----8-----|
--------------------------|--------------------------|


  E  E  E  E  E  E  E  E     E  E  E  E  E  E  E  E   
--------------------------|--------------------------|
--------------------------|--------------------------|
--------------------------|--------------------------|
--5--5-----5--5-----5--5--|-----5--5-----5-----5-----|


  E  E  E  E  E  E  E  E     E  E  E  E  H           E  E  E  E  E  E  E  E   
--------------------------|-----------------------|--------------------------|
--------------------------|-----------------------|--------------------------|
--1--1-----1--1-----1--1--|-----3--3-----3--------|--5--5-----5--5-----5--5--|
--------------------------|-----------------------|--------------------------|


  E  E  E  E  E  E  E  E     E  E  E  E  E  E  E  E   
--------------------------|--------------------------|
--------------------------|--------------------------|
-----5--5-----5-----5-----|--8--8-----8--8-----8--8--|
--------------------------|--------------------------|


  E  E  E  E  E  E  E  E     E  E  E  E  E  E  E  E   
--------------------------|--------------------------|
--------------------------|--------------------------|
-----8--8-----8-----8-----|--------------------------|
--------------------------|--5--5-----5--5-----5--5--|


  E  E  E  E  E  E  E  E     E  E  E  E  E  E  E  E   
--------------------------|--------------------------|
--------------------------|--------------------------|
--------------------------|--1--1-----1--1-----1--1--|
-----5--5-----5-----5-----|--------------------------|


  E  E  E  E  E  E  E  E     E  E  E  E  E  E  E  E   
--------------------------|--------------------------|
--------------------------|--------------------3--3--|
-----3--3-----3-----3-----|--5--5--------------------|
--------------------------|-----------5--5-----------|


  E  E  E  E  E  E  E  E     E  E  E  E  E  E  E  E   
--------------------------|--------------------------|
--------------------------|--------------------3--3--|
-----3--3-----3-----5-----|--5--5--------------------|
--------------------------|-----------5--5-----------|


  E  E  E  E  E  E  E  E     E  E  E  E  E  E  E  E   
--------------------------|--------------------------|
--------------------------|--------------------3--3--|
-----3--3-----3-----5-----|--5--5--------------------|
--------------------------|-----------5--5-----------|


  E  E  E  E  E  E  E  E     E  E  E  E  E  E  E  E   
--------------------------|--------------------------|
--------------------------|--------------------3--3--|
-----3--3-----3-----5-----|--5--5--------------------|
--------------------------|-----------5--5-----------|


  E  E  E  E  E  E  E  E     E  E  E  E  E  E  E  E   
--------------------------|--------------------------|
--------------------------|--------------------3--3--|
-----3--3-----3-----5-----|--5--5--------------------|
--------------------------|-----------5--5-----------|


  E  E  E  E  E  E  E  E     E  E  E  E  E  E  E  E   
--------------------------|--------------------------|
--------------------------|--------------------3--3--|
-----3--3-----3-----5-----|--5--5--------------------|
--------------------------|-----------5--5-----------|


  E  E  E  E  E  E  E  E     E  E  E  E  E  E  E  E   
--------------------------|--------------------------|
--------------------------|--------------------3--3--|
-----3--3-----3-----5-----|--5--5--------------------|
--------------------------|-----------5--5-----------|


  E  E  E  E  E  E  E  E     E  E  Q    E  E  Q       E  E  Q    E  E  Q     
--------------------------|------------------------|------------------------|
--------------------------|------------------------|------------------------|
-----3--3-----3-----5-----|------------------------|--1--1-------1--1-------|
--------------------------|--3--3-------3--3-------|------------------------|


  E  E  Q    E  E  Q               E  E  Q    E  E  Q       Q    H.            
--------5---------------|-------|--------5---------------|--------------------|
-------------2--3-------|-------|-------------2--3-------|--------------------|
--5--5------------------|-------|--5--5------------------|--5-----------------|
------------------------|-------|------------------------|--------------------|


---------------||
---------------||
---------------||
---------------||




Duration Legend
---------------
W - whole
H - half
Q - quarter
E - 8th
S - 16th
T - 32nd
X - 64th
. - note dotted
|-n-|  - n-tuplets


Tablature Legend
----------------
L - tied note
x - dead note
g - grace note
(n) - ghost note
> - accentuded note
NH - natural harmonic
AH - artificial harmonic
TH - tapped harmonic
SH - semi harmonic
PH - pitch harmonic
h - hammer on
p - pull off
b - bend
br - bendRelease
pb - preBend
pbr - preBendRelease
brb - bendReleaseBend
\n/ - tremolo bar dip
\n - tremolo bar dive
-/n - tremolo bar Release up
/n\ - tremolo bar inverted dip
/n - tremolo bar return
-\n - tremolo bar Release down
S - shift slide
s - legato slide
/ -  slide into from below or out of upwards
\ -  slide into from above or out of downwards
~ - vibrato
W - wide vibrato
tr - trill
TP - tremolo picking
T - tapping
S - slap
P - pop
< - fade in
^ - brush up
v - brush down
comments
We did not receive enough feedback on this tab! Please rate:
print report bad tab
1 2 3 4 5
I want to post or [tab]
guest
You may want to rate the tab now too:
select rating
Please do not post tabs as comments. Select "correction" instead!