Oops, an error
Loading. Please wait.

Cavaliers And Roundheads Tab

1,405 views 1 this week
no commentswrite comment
1 2 3 4 5
accurate
x 2
add to favorites launch autoscroll
font size
0
reset
Autoscroll
+/-
esc
set tempo
stop
WARNING: You are trying to view
                                    content from Ultimate-Guitar.com
                                    in an unauthorized application,
                                    which is prohibited.

                                    Please use an official Ultimate
                                    Guitar Tabs application for iPhone,
                                    iPad or Android to access legitimate
                                    chords, guitar, bass, and drum tabs
                                    from Ultimate-Guitar.com database.

                                    Type "ultimate guitar tabs" in Apple
                                    App Store's or Android Market's
                                    search to find the application.
Band:
Song:



Guitar # 1:



E||-------|-------|-------|-------|-------|-------|-------|
B||-------|-------|-------|-------|-------|-------|-------|
G||-------|-------|-------|-------|-------|-------|-------|
D||-------|-------|-------|-------|-------|-------|-------|
A||-------|-------|-------|-------|-------|-------|-------|
E||-------|-------|-------|-------|-------|-------|-------|


  H.           Q        E  E  Q    E  E  Q               E  E  Q    E  E  Q     
---------------------|------------------------|-------|------------------------|
---------------------|------------------------|-------|--1--1------------------|
---------------5\----|--------5---------------|-------|--------2----0----------|
---------------------|-------------2--3-------|-------|----------------3-------|
---------------------|--5--5------------------|-------|------------------------|
---------------------|------------------------|-------|------------------------|


          E  E  Q    E  E  Q               E  E  Q    E  E  Q             
-------|------------------------|-------|------------------------|-------|
-------|------------------------|-------|------------------------|-------|
-------|--------5---------------|-------|------------------------|-------|
-------|-------------2--3-------|-------|--------3----3--5-------|-------|
-------|--5--5------------------|-------|--3--3------------------|-------|
-------|------------------------|-------|------------------------|-------|


  E  E  Q    E  E  Q               E  E  Q    E  E  Q             
------------------------|-------|------------------------|-------|
------------------------|-------|--1--1------------------|-------|
--------5---------------|-------|--------2----0----------|-------|
-------------2--3-------|-------|----------------3-------|-------|
--5--5------------------|-------|------------------------|-------|
------------------------|-------|------------------------|-------|


  E  E  Q    E  E  Q       H        E  E  Q       E  E  Q    E  E  Q     
------------------------|----------------------|------------------------|
------------------------|----------------------|------------------------|
--------5---------------|-----------3--3--2----|------------------------|
-------------2--3-------|----------------------|--------3----3--5-------|
--5--5------------------|----------------------|--3--3------------------|
------------------------|----------------------|------------------------|


  H        E   E  Q        E  E  Q    E  E  Q             
------------------------|------------------------|-------|
-----------6------5-----|------------------------|-------|
-----------8b-----7b----|--------5---------------|-------|
------------------------|-------------2--3-------|-------|
------------------------|--5--5------------------|-------|
------------------------|------------------------|-------|


  E  E  Q    E  E  Q               E  E  Q    E  E  Q             
------------------------|-------|------------------------|-------|
--1--1------------------|-------|------------------------|-------|
--------2----0----------|-------|--------5---------------|-------|
----------------3-------|-------|-------------2--3-------|-------|
------------------------|-------|--5--5------------------|-------|
------------------------|-------|------------------------|-------|


  E  E  Q    E  E  Q               E  E  Q    E  E  Q             
------------------------|-------|------------------------|-------|
------------------------|-------|------------------------|-------|
------------------------|-------|--------5---------------|-------|
--------3----3--5-------|-------|-------------2--3-------|-------|
--3--3------------------|-------|--5--5------------------|-------|
------------------------|-------|------------------------|-------|


  E  E  Q    E  E  Q               E  E  Q    E  E  Q     
------------------------|-------|------------------------|
--1--1------------------|-------|------------------------|
--------2----0----------|-------|--------5---------------|
----------------3-------|-------|-------------2--3-------|
------------------------|-------|--5--5------------------|
------------------------|-------|------------------------|


  H        E  E  Q       E  E  Q    E  E  Q       H        E   E  Q      
----------------------|------------------------|------------------------|
----------------------|------------------------|-----------6------5-----|
-----------3--3--2----|------------------------|-----------8b-----7b----|
----------------------|--------3----3--5-------|------------------------|
----------------------|--3--3------------------|------------------------|
----------------------|------------------------|------------------------|


  TP           TP      TP           TP      TP           TP    
  H.           Q       H.           Q       H.           Q     
--------------------|--------------------|--------------------|
--------------------|--------------------|--------------------|
--------------------|--------------------|--------------------|
--------------------|--------------------|--------------------|
--1------------8----|--3------------8----|--5------------8----|
--------------------|--------------------|--------------------|


  TP           TP      TP           TP      TP           TP    
  H.           Q       H.           Q       H.           Q     
--------------------|--------------------|--------------------|
--------------------|--------------------|--------------------|
--------------------|--------------------|--------------------|
--------------------|--------------------|--------------------|
--0------------8----|--1------------8----|--3------------8----|
--------------------|--------------------|--------------------|


  TP           TP      TP       TP   TP                           
  H.           Q       H        Q    Q        Q     H.            
--------------------|---------------------|----------------------|
--------------------|---------------------|----------------------|
--------------------|---------------------|----------------------|
--------------------|---------------------|----------------------|
---------------8----|---------------------|----------------------|
--3-----------------|--5--------6----8----|--10\-----------------|


  H         E   E   Q                H         Q     Q              
--------------------------|-------|------------------------|-------|
-----------11------10-----|-------|-----------13S----5-----|-------|
-----------13b-----12b----|-------|------------------7b----|-------|
--------------------------|-------|------------------------|-------|
--------------------------|-------|------------------------|-------|
--------------------------|-------|------------------------|-------|


  H         E   E   Q                H         Q     Q              
--------------------------|-------|------------------------|-------|
-----------11------10-----|-------|-----------13S----5-----|-------|
-----------13b-----12b----|-------|------------------7b----|-------|
--------------------------|-------|------------------------|-------|
--------------------------|-------|------------------------|-------|
--------------------------|-------|------------------------|-------|


  H         E   E   Q                H         Q     Q              
--------------------------|-------|------------------------|-------|
-----------11------10-----|-------|-----------13S----5-----|-------|
-----------13b-----12b----|-------|------------------7b----|-------|
--------------------------|-------|------------------------|-------|
--------------------------|-------|------------------------|-------|
--------------------------|-------|------------------------|-------|


  H         E   E   Q        Q    E  E  Q    E  E     Q    E   E  Q     Q      
--------------------------|------------------------|--------------------------|
-----------11------10-----|-------6----------6-----|-------8-----------10\----|
-----------13b-----12b----|------------------------|--------------------------|
--------------------------|----------8----------8--|----------10--------------|
--------------------------|------------------------|--------------------------|
--------------------------|------------------------|--------------------------|


  E  E  Q    E  E  Q       E  E  Q     E  E  Q        E  E  Q    E  E  Q     
------------------------|--------------------------|------------------------|
------------------------|--------------------5\----|------------------------|
--------5---------------|--------5~----------------|--------2----0----------|
-------------2--3-------|--2--2--------3--3--------|----------------3-------|
--5--5------------------|--------------------------|--1--1------------------|
------------------------|--------------------------|------------------------|


  E  E  Q    E  E  Q       E  E  Q    E  E  Q       E  E  Q    E  E  Q     
------------------------|------------------------|------------------------|
-------------------5----|------------------------|------------------------|
--------5---------------|--------5---------------|--------2----------3----|
------------------------|-------------2--3-------|------------------------|
--0--0-------3--3-------|--5--5------------------|------------------------|
------------------------|------------------------|--1--1-------3--3-------|


  E  E  Q    E  E  Q       E  E  Q     E  E  Q       E  E  Q    E  E  Q     
------------------------|-------------------------|------------------------|
------------------------|--------6\---------------|------------------------|
--------5---------------|--------------------5----|--------5---------------|
-------------3--5-------|--5--5--------7--7-------|-------------2--3-------|
--3--3------------------|-------------------------|--5--5------------------|
------------------------|-------------------------|------------------------|


  E  E  E  E  E  E  E  E     E  E  Q    E  E  Q       E  E  E  E  E  E  E  E   
--------5-----------6-----|------------------------|--------8-----------------|
-----------6-----------8--|------------------------|-----------8--------6--8--|
--------------------------|--------2----0----------|--------------------------|
--------------------------|----------------3-------|--------------------------|
--7--7--------8--8--------|--1--1------------------|--0--0--------------------|
--------------------------|------------------------|--------------8--8--------|


  E  E  Q    E  E  Q       E  E  Q    E  E  Q        E  E  Q    E  E  Q     
------------------------|-------------------------|------------------------|
------------------------|--------5----------6\----|------------------------|
--------5---------------|-------------------------|--------5---------------|
-------------2--3-------|--3--3-------5--5--------|-------------3--5-------|
--5--5------------------|-------------------------|--3--3------------------|
------------------------|-------------------------|------------------------|


                            TP           TP      TP           TP    
  E  E  Q    E  E  Q        H.           Q       H.           Q     
-------------------------|--------------------|--------------------|
--------6----------8\----|--------------------|--------------------|
-------------------------|--------------------|--------------------|
--5--5-------7--7--------|--------------------|--------------------|
-------------------------|--1------------8----|--3------------8----|
-------------------------|--------------------|--------------------|


  TP           TP      TP           TP      TP           TP    
  H.           Q       H.           Q       H.           Q     
--------------------|--------------------|--------------------|
--------------------|--------------------|--------------------|
--------------------|--------------------|--------------------|
--------------------|--------------------|--------------------|
--5------------8----|--0------------8----|--1------------8----|
--------------------|--------------------|--------------------|


  TP           TP      TP           TP      TP       TP   TP    
  H.           Q       H.           Q       H        Q    Q     
--------------------|--------------------|---------------------|
--------------------|--------------------|---------------------|
--------------------|--------------------|---------------------|
--------------------|--------------------|---------------------|
--3------------8----|---------------8----|---------------------|
--------------------|--3-----------------|--5--------6----8----|


   Q     H.              H         E   E   Q              
----------------------|--------------------------|-------|
----------------------|-----------11------10-----|-------|
----------------------|-----------13b-----12b----|-------|
----------------------|--------------------------|-------|
----------------------|--------------------------|-------|
--10\-----------------|--------------------------|-------|


  H         Q     Q                H         E   E   Q              
------------------------|-------|--------------------------|-------|
-----------13S----5-----|-------|-----------11------10-----|-------|
------------------7b----|-------|-----------13b-----12b----|-------|
------------------------|-------|--------------------------|-------|
------------------------|-------|--------------------------|-------|
------------------------|-------|--------------------------|-------|


  H         Q     Q                H         E   E   Q              
------------------------|-------|--------------------------|-------|
-----------13S----5-----|-------|-----------11------10-----|-------|
------------------7b----|-------|-----------13b-----12b----|-------|
------------------------|-------|--------------------------|-------|
------------------------|-------|--------------------------|-------|
------------------------|-------|--------------------------|-------|


  H         Q     Q                H         E   E   Q      
------------------------|-------|--------------------------|
-----------13S----5-----|-------|-----------11------10-----|
------------------7b----|-------|-----------13b-----12b----|
------------------------|-------|--------------------------|
------------------------|-------|--------------------------|
------------------------|-------|--------------------------|


  Q    E  E  Q    E  E     Q    E   E  Q     Q      
------------------------|--------------------------|
-------6----------6-----|-------8-----------10\----|
------------------------|--------------------------|
----------8----------8--|----------10--------------|
------------------------|--------------------------|
------------------------|--------------------------|


  E   E  E   E  E   E  E   E     E   E  E   E  E   E  E   E   
--------------------------10--|--------------------------10--|
-----10-----11-----13---------|-----10-----11-----13---------|
--7---------------------------|------------------------------|
------------------------------|------------------------------|
------------------------------|------------------------------|
------------------------------|------------------------------|


  E   E  E   E  E   E  E   E     E   E  E   E  E   E  E   E   
--------------------------10--|--------------------------10--|
-----10-----11-----13---------|-----10-----11-----13---------|
------------------------------|------------------------------|
------------------------------|------------------------------|
------------------------------|------------------------------|
------------------------------|------------------------------|


  E   E  E   E  E   E  E   E     E   E  E   E  E   E  E   E   
--------------------------10--|--------------------------10--|
-----10-----11-----13---------|-----10-----11-----13---------|
------------------------------|------------------------------|
------------------------------|------------------------------|
------------------------------|------------------------------|
------------------------------|------------------------------|


  E   E  E   E  E   E  E   E     W                    E  E  E  E   E  E  E  E   
--------------------------10--|--------------------|--------1---------3--------|
-----10-----11-----13---------|--------------------|--1--3-----3s--5-----5--6--|
------------------------------|--7\----------------|---------------------------|
------------------------------|--------------------|---------------------------|
------------------------------|--------------------|---------------------------|
------------------------------|--------------------|---------------------------|


  E  E  E  E  E    E  E  E      W                     W                 
--5--------6----------8--L\--|--1s----------------|--20----------------|
-----6--8-----8s--10---------|--------------------|--------------------|
-----------------------------|--------------------|--------------------|
-----------------------------|--------------------|--------------------|
-----------------------------|--------------------|--------------------|
-----------------------------|--------------------|--------------------|


                       |---3---|   |---3---|   
   S  S  E   S  S  E   E   E   E   E   E   E   
--18-17-15------------------------------------|
------------18-17-15--------------------------|
----------------------17--15--14--------------|
----------------------------------17--15--14--|
----------------------------------------------|
----------------------------------------------|


   S  S  E   S  S  E  S  S E  S S E     Q     E   Q     E   Q      
--12-13-12--10-12-10--8-10-8--6-8-6--|----------------------------|
-------------------------------------|--6---------8--------10-----|
-------------------------------------|--8b-------10b-------12b----|
-------------------------------------|----------------------------|
-------------------------------------|----------------------------|
-------------------------------------|----------------------------|


  E   Q     E   Q     Q        E  E   E   E   E    E   E   E   
---------------------------|--------------------------13------|
-----11--------13----------|--13---------10---------------10--|
-----13b-------15b---------|------9--10-----------------------|
---------------------------|-----------------10s--12----------|
---------------------------|----------------------------------|
---------------------------|----------------------------------|


                            TP        TP      TP      TP    
   E   E   E    E   E   E   Q         Q.      Q.      Q     
------15-----------17---L\--------|------------------------|
--11------11s--13-----------1s----|--13------11------10----|
----------------------------------|------------------------|
----------------------------------|------------------------|
----------------------------------|------------------------|
----------------------------------|------------------------|


  TP   TP       TP        TP      TP      TP       TP     TP           
  Q    H        Q         Q.      Q.      Q        Q.     H        E   
----------------1/----|------------------------|----------------------|
--8----6--------------|--15------13------11----|--10------6--------L--|
----------------------|------------------------|----------------------|
----------------------|------------------------|----------------------|
----------------------|------------------------|----------------------|
----------------------|------------------------|----------------------|


  |--3--|  |--3--|   |---3--|  |--3--|   
  E  E  E  E  E  E   E  E   E  E  E  E   
----------------------------------------|
----------------------------------------|
-------------------------------7--5--7--|
--5--3--5--7--5--7--10--7--10-----------|
----------------------------------------|
----------------------------------------|


   |---3--|  |--3--|   |---3--|   |---3---|                          
   E  E   E  E  E  E   E  E   E   E   E   E      Q     H.            
---------------------------------------------|----------------------|
-------------8--6--8--10--8--10--13--10--13--|--15\-----------------|
--10--7--10----------------------------------|----------------------|
---------------------------------------------|----------------------|
---------------------------------------------|----------------------|
---------------------------------------------|----------------------|


  H         E   E   Q                H         Q     Q              
--------------------------|-------|------------------------|-------|
-----------11------10-----|-------|-----------13S----5-----|-------|
-----------13b-----12b----|-------|------------------7b----|-------|
--------------------------|-------|------------------------|-------|
--------------------------|-------|------------------------|-------|
--------------------------|-------|------------------------|-------|


  H         E   E   Q                H         Q     Q              
--------------------------|-------|------------------------|-------|
-----------11------10-----|-------|-----------13S----5-----|-------|
-----------13b-----12b----|-------|------------------7b----|-------|
--------------------------|-------|------------------------|-------|
--------------------------|-------|------------------------|-------|
--------------------------|-------|------------------------|-------|


  H         E   E   Q                H         Q     Q              
--------------------------|-------|------------------------|-------|
-----------11------10-----|-------|-----------13S----5-----|-------|
-----------13b-----12b----|-------|------------------7b----|-------|
--------------------------|-------|------------------------|-------|
--------------------------|-------|------------------------|-------|
--------------------------|-------|------------------------|-------|


  H         E   E   Q        Q    E  E  Q    E  E     Q    E   E  Q     Q      
--------------------------|------------------------|--------------------------|
-----------11------10-----|-------6----------6-----|-------8-----------10\----|
-----------13b-----12b----|------------------------|--------------------------|
--------------------------|----------8----------8--|----------10--------------|
--------------------------|------------------------|--------------------------|
--------------------------|------------------------|--------------------------|


  E  E  Q    E  E  Q               E  E  Q    E  E  Q                      
------------------------|-------|------------------------|-------|-------||
------------------------|-------|------------------------|-------|-------||
--------5---------------|-------|--------5---------------|-------|-------||
-------------2--3-------|-------|-------------2--3-------|-------|-------||
--5--5------------------|-------|--5--5------------------|-------|-------||
------------------------|-------|------------------------|-------|-------||










Guitar # 2:



E||-------|-------|-------|-------|-------|-------|-------|-------|-------|
B||-------|-------|-------|-------|-------|-------|-------|-------|-------|
G||-------|-------|-------|-------|-------|-------|-------|-------|-------|
D||-------|-------|-------|-------|-------|-------|-------|-------|-------|
A||-------|-------|-------|-------|-------|-------|-------|-------|-------|
E||-------|-------|-------|-------|-------|-------|-------|-------|-------|


-------|-------|-------|-------|-------|-------|-------|-------|-------|-------|
-------|-------|-------|-------|-------|-------|-------|-------|-------|-------|
-------|-------|-------|-------|-------|-------|-------|-------|-------|-------|
-------|-------|-------|-------|-------|-------|-------|-------|-------|-------|
-------|-------|-------|-------|-------|-------|-------|-------|-------|-------|
-------|-------|-------|-------|-------|-------|-------|-------|-------|-------|


-------|-------|-------|-------|-------|-------|-------|-------|-------|-------|
-------|-------|-------|-------|-------|-------|-------|-------|-------|-------|
-------|-------|-------|-------|-------|-------|-------|-------|-------|-------|
-------|-------|-------|-------|-------|-------|-------|-------|-------|-------|
-------|-------|-------|-------|-------|-------|-------|-------|-------|-------|
-------|-------|-------|-------|-------|-------|-------|-------|-------|-------|


-------|-------|-------|-------|-------|-------|-------|-------|-------|-------|
-------|-------|-------|-------|-------|-------|-------|-------|-------|-------|
-------|-------|-------|-------|-------|-------|-------|-------|-------|-------|
-------|-------|-------|-------|-------|-------|-------|-------|-------|-------|
-------|-------|-------|-------|-------|-------|-------|-------|-------|-------|
-------|-------|-------|-------|-------|-------|-------|-------|-------|-------|


-------|-------|-------|-------|-------|-------|-------|-------|-------|
-------|-------|-------|-------|-------|-------|-------|-------|-------|
-------|-------|-------|-------|-------|-------|-------|-------|-------|
-------|-------|-------|-------|-------|-------|-------|-------|-------|
-------|-------|-------|-------|-------|-------|-------|-------|-------|
-------|-------|-------|-------|-------|-------|-------|-------|-------|


  E  E  E  E  E  E  E  E     E  E  E  E  E  E  E  E   
--------------------------|--------------------------|
--------------------------|--------------------------|
--7--7-----7--7-----7--7--|-----7--7-----7-----7-----|
--7--7-----7--7-----7--7--|-----7--7-----7-----7-----|
--5--5-----5--5-----5--5--|-----5--5-----5-----5-----|
--------------------------|--------------------------|


  E  E  E  E  E  E  E  E     E  E  E  E  E  E  E  E   
--------------------------|--------------------------|
--------------------------|--------------------------|
--7--7-----7--7-----7--7--|-----7--7-----7-----7-----|
--7--7-----7--7-----7--7--|-----7--7-----7-----7-----|
--5--5-----5--5-----5--5--|-----5--5-----5-----5-----|
--------------------------|--------------------------|


  E  E  E  E  E  E  E  E     E  E  E  E  E  E  E  E   
--------------------------|--------------------------|
--------------------------|--------------------------|
--7--7-----7--7-----7--7--|-----7--7-----7-----7-----|
--7--7-----7--7-----7--7--|-----7--7-----7-----7-----|
--5--5-----5--5-----5--5--|-----5--5-----5-----5-----|
--------------------------|--------------------------|


  E  E  E  E  E  E  E  E     E  E  E  E  E  E  E  E   
--------------------------|--------------------------|
--------------------------|--------------------------|
--7--7-----7--7-----7--7--|-----7--7-----7-----7-----|
--7--7-----7--7-----7--7--|-----7--7-----7-----7-----|
--5--5-----5--5-----5--5--|-----5--5-----5-----5-----|
--------------------------|--------------------------|


  E  E  E  E  E  E  E  E     E  E  E  E  E  E  E  E   
--------------------------|--------------------------|
--------------------------|--------------------------|
--7--7-----7--7-----7--7--|-----7--7-----7-----7-----|
--7--7-----7--7-----7--7--|-----7--7-----7-----7-----|
--5--5-----5--5-----5--5--|-----5--5-----5-----5-----|
--------------------------|--------------------------|


  E  E  E  E  E  E  E  E     E  E  E  E  E  E  E  E   
--------------------------|--------------------------|
--------------------------|--------------------------|
--7--7-----7--7-----7--7--|-----7--7-----7-----7-----|
--7--7-----7--7-----7--7--|-----7--7-----7-----7-----|
--5--5-----5--5-----5--5--|-----5--5-----5-----5-----|
--------------------------|--------------------------|


  E  E  E  E  E  E  E  E     E  E  E  E  E  E  E  E     E  E  Q    E  E  Q     
--------------------------|--------------------------|------------------------|
--------------------------|--------------------------|------------------------|
--7--7-----7--7-----7--7--|-----7--7-----7-----7-----|------------------------|
--7--7-----7--7-----7--7--|-----7--7-----7-----7-----|--5--5-------5--5-------|
--5--5-----5--5-----5--5--|-----5--5-----5-----5-----|--5--5-------5--5-------|
--------------------------|--------------------------|--3--3-------3--3-------|


  E  E  Q    E  E  Q                                                     
------------------------|-------|-------|-------|-------|-------|-------|
------------------------|-------|-------|-------|-------|-------|-------|
--3--3-------3--3-------|-------|-------|-------|-------|-------|-------|
--3--3-------3--3-------|-------|-------|-------|-------|-------|-------|
--1--1-------1--1-------|-------|-------|-------|-------|-------|-------|
------------------------|-------|-------|-------|-------|-------|-------|


-------|-------|-------|-------|-------|-------|-------|-------|-------|-------|
-------|-------|-------|-------|-------|-------|-------|-------|-------|-------|
-------|-------|-------|-------|-------|-------|-------|-------|-------|-------|
-------|-------|-------|-------|-------|-------|-------|-------|-------|-------|
-------|-------|-------|-------|-------|-------|-------|-------|-------|-------|
-------|-------|-------|-------|-------|-------|-------|-------|-------|-------|


-------|-------|-------|-------|-------|-------|-------|-------|
-------|-------|-------|-------|-------|-------|-------|-------|
-------|-------|-------|-------|-------|-------|-------|-------|
-------|-------|-------|-------|-------|-------|-------|-------|
-------|-------|-------|-------|-------|-------|-------|-------|
-------|-------|-------|-------|-------|-------|-------|-------|


  E  E  E  E  E  E  E  E     E  E  E  E  E  E  E  E   
--------------------------|--------------------------|
--------------------------|--------------------------|
--7--7-----7--7-----7--7--|-----7--7-----7-----7-----|
--7--7-----7--7-----7--7--|-----7--7-----7-----7-----|
--5--5-----5--5-----5--5--|-----5--5-----5-----5-----|
--------------------------|--------------------------|


  E  E  E  E  E  E  E  E     E  E  E  E  E  E  E  E   
--------------------------|--------------------------|
--------------------------|--------------------------|
--7--7-----7--7-----7--7--|-----7--7-----7-----7-----|
--7--7-----7--7-----7--7--|-----7--7-----7-----7-----|
--5--5-----5--5-----5--5--|-----5--5-----5-----5-----|
--------------------------|--------------------------|


  E  E  E  E  E  E  E  E     E  E  E  E  E  E  E  E   
--------------------------|--------------------------|
--------------------------|--------------------------|
--7--7-----7--7-----7--7--|-----7--7-----7-----7-----|
--7--7-----7--7-----7--7--|-----7--7-----7-----7-----|
--5--5-----5--5-----5--5--|-----5--5-----5-----5-----|
--------------------------|--------------------------|


  E  E  E  E  E  E  E  E     E  E  E  E  E  E  E  E   
--------------------------|--------------------------|
--------------------------|--------------------------|
--7--7-----7--7-----7--7--|-----7--7-----7-----7-----|
--7--7-----7--7-----7--7--|-----7--7-----7-----7-----|
--5--5-----5--5-----5--5--|-----5--5-----5-----5-----|
--------------------------|--------------------------|


  E  E  E  E  E  E  E  E     E  E  E  E  E  E  E  E   
--------------------------|--------------------------|
--------------------------|--------------------------|
--7--7-----7--7-----7--7--|-----7--7-----7-----7-----|
--7--7-----7--7-----7--7--|-----7--7-----7-----7-----|
--5--5-----5--5-----5--5--|-----5--5-----5-----5-----|
--------------------------|--------------------------|


  E  E  E  E  E  E  E  E     E  E  E  E  E  E  E  E   
--------------------------|--------------------------|
--------------------------|--------------------------|
--7--7-----7--7-----7--7--|-----7--7-----7-----7-----|
--7--7-----7--7-----7--7--|-----7--7-----7-----7-----|
--5--5-----5--5-----5--5--|-----5--5-----5-----5-----|
--------------------------|--------------------------|


  E  E  E  E  E  E  E  E     E  E  E  E  E  E  E  E     E  E  Q    E  E  Q     
--------------------------|--------------------------|------------------------|
--------------------------|--------------------------|------------------------|
--7--7-----7--7-----7--7--|-----7--7-----7-----7-----|------------------------|
--7--7-----7--7-----7--7--|-----7--7-----7-----7-----|--5--5-------5--5-------|
--5--5-----5--5-----5--5--|-----5--5-----5-----5-----|--5--5-------5--5-------|
--------------------------|--------------------------|--3--3-------3--3-------|


                            TP                                    
  E  E  Q    E  E  Q        W                   W                 
------------------------|--10----------------|--L----------------|
------------------------|--------------------|-------------------|
--3--3-------3--3-------|--------------------|-------------------|
--3--3-------3--3-------|--------------------|-------------------|
--1--1-------1--1-------|--------------------|-------------------|
------------------------|--------------------|-------------------|


  W                   W                    W                 
--L----------------|--L----------------|---L----------------|
-------------------|-------------------|--------------------|
-------------------|-------------------|--------------------|
-------------------|-------------------|--------------------|
-------------------|-------------------|--------------------|
-------------------|-------------------|--------------------|


  W                   W                                     
--L----------------|--L----------------|-------------------|
-------------------|-------------------|-------------------|
-------------------|-------------------|-------------------|
-------------------|-------------------|-------------------|
-------------------|-------------------|-------------------|
-------------------|-------------------|-------------------|


  E  E  E  E  E  E  E  E     E  E  E  E  E  E  E  E   
--------------------------|--------------------------|
--------------------------|--------------------------|
--7--7-----7--7-----7--7--|-----7--7-----7-----7-----|
--7--7-----7--7-----7--7--|-----7--7-----7-----7-----|
--5--5-----5--5-----5--5--|-----5--5-----5-----5-----|
--------------------------|--------------------------|


   E   E  E   E   E  E   E   E     E   E   E  E   E  E   E  E   
--------------------------------|------------------------------|
--------------------------------|------------------------------|
--10--10-----10--10-----10--10--|-----10--10-----10-----10-----|
--10--10-----10--10-----10--10--|-----10--10-----10-----10-----|
---8---8------8---8------8---8--|------8---8------8------8-----|
--------------------------------|------------------------------|


  E  E  E  E  E  E  E  E     E  E  E  E  E  E  E  E   
--------------------------|--------------------------|
--------------------------|--------------------------|
--------------------------|--------------------------|
--7--7-----7--7-----7--7--|-----7--7-----7-----7-----|
--7--7-----7--7-----7--7--|-----7--7-----7-----7-----|
--5--5-----5--5-----5--5--|-----5--5-----5-----5-----|


  E  E  E  E  E  E  E  E     E  E  E  E  H           E  E  E  E  E  E  E  E   
--------------------------|-----------------------|--------------------------|
--------------------------|-----------------------|--------------------------|
--3--3-----3--3-----3--3--|-----5--5-----5--------|--7--7-----7--7-----7--7--|
--3--3-----3--3-----3--3--|-----5--5-----5--------|--7--7-----7--7-----7--7--|
--1--1-----1--1-----1--1--|-----3--3-----3--------|--5--5-----5--5-----5--5--|
--------------------------|-----------------------|--------------------------|


  E  E  E  E  E  E  E  E      E   E  E   E   E  E   E   E   
--------------------------|--------------------------------|
--------------------------|--------------------------------|
-----7--7-----7-----7-----|--10--10-----10--10-----10--10--|
-----7--7-----7-----7-----|--10--10-----10--10-----10--10--|
-----5--5-----5-----5-----|---8---8------8---8------8---8--|
--------------------------|--------------------------------|


  E   E   E  E   E  E   E  E     E  E  E  E  E  E  E  E   
------------------------------|--------------------------|
------------------------------|--------------------------|
-----10--10-----10-----10-----|--------------------------|
-----10--10-----10-----10-----|--7--7-----7--7-----7--7--|
------8---8------8------8-----|--7--7-----7--7-----7--7--|
------------------------------|--5--5-----5--5-----5--5--|


  E  E  E  E  E  E  E  E     E  E  E  E  E  E  E  E   
--------------------------|--------------------------|
--------------------------|--------------------------|
--------------------------|--3--3-----3--3-----3--3--|
-----7--7-----7-----7-----|--3--3-----3--3-----3--3--|
-----7--7-----7-----7-----|--1--1-----1--1-----1--1--|
-----5--5-----5-----5-----|--------------------------|


  E  E  E  E  E  E  E  E     E  E  E  E  E  E  E  E   
--------------------------|--------------------------|
--------------------------|--------------------------|
-----5--5-----5-----5-----|--7--7-----7--7-----7--7--|
-----5--5-----5-----5-----|--7--7-----7--7-----7--7--|
-----3--3-----3-----3-----|--5--5-----5--5-----5--5--|
--------------------------|--------------------------|


  E  E  E  E  E  E  E  E     E  E  E  E  E  E  E  E   
--------------------------|--------------------------|
--------------------------|--------------------------|
-----7--7-----7-----7-----|--7--7-----7--7-----7--7--|
-----7--7-----7-----7-----|--7--7-----7--7-----7--7--|
-----5--5-----5-----5-----|--5--5-----5--5-----5--5--|
--------------------------|--------------------------|


  E  E  E  E  E  E  E  E     E  E  E  E  E  E  E  E   
--------------------------|--------------------------|
--------------------------|--------------------------|
-----7--7-----7-----7-----|--7--7-----7--7-----7--7--|
-----7--7-----7-----7-----|--7--7-----7--7-----7--7--|
-----5--5-----5-----5-----|--5--5-----5--5-----5--5--|
--------------------------|--------------------------|


  E  E  E  E  E  E  E  E     E  E  E  E  E  E  E  E   
--------------------------|--------------------------|
--------------------------|--------------------------|
-----7--7-----7-----7-----|--7--7-----7--7-----7--7--|
-----7--7-----7-----7-----|--7--7-----7--7-----7--7--|
-----5--5-----5-----5-----|--5--5-----5--5-----5--5--|
--------------------------|--------------------------|


  E  E  E  E  E  E  E  E     E  E  E  E  E  E  E  E   
--------------------------|--------------------------|
--------------------------|--------------------------|
-----7--7-----7-----7-----|--7--7-----7--7-----7--7--|
-----7--7-----7-----7-----|--7--7-----7--7-----7--7--|
-----5--5-----5-----5-----|--5--5-----5--5-----5--5--|
--------------------------|--------------------------|


  E  E  E  E  E  E  E  E     E  E  E  E  E  E  E  E   
--------------------------|--------------------------|
--------------------------|--------------------------|
-----7--7-----7-----7-----|--7--7-----7--7-----7--7--|
-----7--7-----7-----7-----|--7--7-----7--7-----7--7--|
-----5--5-----5-----5-----|--5--5-----5--5-----5--5--|
--------------------------|--------------------------|


  E  E  E  E  E  E  E  E     E  E  E  E  E  E  E  E   
--------------------------|--------------------------|
--------------------------|--------------------------|
-----7--7-----7-----7-----|--7--7-----7--7-----7--7--|
-----7--7-----7-----7-----|--7--7-----7--7-----7--7--|
-----5--5-----5-----5-----|--5--5-----5--5-----5--5--|
--------------------------|--------------------------|


  E  E  E  E  E  E  E  E     E  E  Q    E  E  Q       E  E  Q    E  E  Q     
--------------------------|------------------------|------------------------|
--------------------------|------------------------|------------------------|
-----7--7-----7-----7-----|------------------------|--3--3-------3--3-------|
-----7--7-----7-----7-----|--5--5-------5--5-------|--3--3-------3--3-------|
-----5--5-----5-----5-----|--5--5-------5--5-------|--1--1-------1--1-------|
--------------------------|--3--3-------3--3-------|------------------------|


-------|-------|-------|-------|-------||
-------|-------|-------|-------|-------||
-------|-------|-------|-------|-------||
-------|-------|-------|-------|-------||
-------|-------|-------|-------|-------||
-------|-------|-------|-------|-------||





Duration Legend
---------------
W - whole
H - half
Q - quarter
E - 8th
S - 16th
T - 32nd
X - 64th
. - note dotted
|-n-|  - n-tuplets


Tablature Legend
----------------
L - tied note
x - dead note
g - grace note
(n) - ghost note
> - accentuded note
NH - natural harmonic
AH - artificial harmonic
TH - tapped harmonic
SH - semi harmonic
PH - pitch harmonic
h - hammer on
p - pull off
b - bend
br - bendRelease
pb - preBend
pbr - preBendRelease
brb - bendReleaseBend
\n/ - tremolo bar dip
\n - tremolo bar dive
-/n - tremolo bar Release up
/n\ - tremolo bar inverted dip
/n - tremolo bar return
-\n - tremolo bar Release down
S - shift slide
s - legato slide
/ -  slide into from below or out of upwards
\ -  slide into from above or out of downwards
~ - vibrato
W - wide vibrato
tr - trill
TP - tremolo picking
T - tapping
S - slap
P - pop
< - fade in
^ - brush up
v - brush down
comments
We did not receive enough feedback on this tab! Please rate:
print report bad tab
1 2 3 4 5
I want to post or [tab]
guest
You may want to rate the tab now too:
select rating
Please do not post tabs as comments. Select "correction" instead!