Oops, an error
Loading. Please wait.

England Tab

ver2
ver2

Whole song

More versions @911Tabs.com
2,567 views 1 this week
no commentswrite comment
1 2 3 4 5
excellent!
x 3
Autoscroll
+/-
esc
set tempo
stop
Contributor
Hey! There's an official Ultimate Guitar app which is ideal
for learning songs when you're away from computer. Get the app
WARNING: You are trying to view
                                    content from Ultimate-Guitar.com
                                    in an unauthorized application,
                                    which is prohibited.

                                    Please use an official Ultimate
                                    Guitar Tabs application for iPhone,
                                    iPad or Android to access legitimate
                                    chords, guitar, bass, and drum tabs
                                    from Ultimate-Guitar.com database.

                                    Type "ultimate guitar tabs" in Apple
                                    App Store's or Android Market's
                                    search to find the application.
----------------------------------------------------------------------------
                             England - Bloc Party
----------------------------------------------------------------------------
Tabbed by: Radiall
Email: orrinsf@msn.com

Tuning: Standard

Intro (Part 1)
Guitar 1
e|-------------------------------------------------------------|
B|-------3~-------6~-------3~-------6~-------------------------|
G|-------3~-------7~-------3~-------7~-------------------------|
D|-------5~-------5~-------5~-------5~-------------------------|
A|-------5~-------5~-------5~-------5~-------------------------|
E|-------3~----------------3~----------------------------------|


Intro (Part 2)
Guitar 1
e|-------------------------------------------------------------|
B|-------3~-------6~-------3~-------6~-------8~----------------|
G|-------3~-------7~-------3~-------7~-------9~----------------|
D|-------5~-------5~-------5~-------5~-------7~----------------|
A|-------5~-------5~-------5~-------5~-------7~----------------|
E|-------3~----------------3~----------------------------------|


Guitar 2
e|---13-13-------------13-------------11-------------13-----------------|
B|---------15-13-11-13----13-15-13-15----15-13-11-13----13-15-13-15-----|
G|----------------------------------------------------------------------|
D|----------------------------------------------------------------------|
A|----------------------------------------------------------------------|
E|----------------------------------------------------------------------|

e|----11---------11---------13---------11----------------|
B|-------15-11------15-11------15-11------15-11----------|
G|-------------------------------------------------------|
D|-------------------------------------------------------|
A|-------------------------------------------------------|
E|-------------------------------------------------------|

e|----11---------11---------13---------13-11-------------|
B|-------15-11------15-11------15-11---------15-11~------|
G|-------------------------------------------------------|
D|-------------------------------------------------------|
A|-------------------------------------------------------|
E|-------------------------------------------------------|


Verse 1
Guitar 1
e|-------------------------------------------------------------|
B|-------3~-------6~-------3~-------6~-------8~----------------|
G|-------3~-------7~-------3~-------7~-------9~----------------|
D|-------5~-------5~-------5~-------5~-------7~----------------|
A|-------5~-------5~-------5~-------5~-------7~----------------|
E|-------3~----------------3~----------------------------------|

e|-------------------------------------------------------------|
B|-------3~-------6~-------1~-------3~-------1~------6~----6~--|
G|-------3~-------7~-------2~-------3~-------2~------7~----7~--|
D|-------5~-------5~-------3~-------3~-------3~------5~----5~--|
A|-------5~-------5~-------3~-------1~-------3~------5~----5~--|
E|-------3~----------------1~----------------1~----------------|


Chorus 
Guitar 1
(Not Sure If This Guitar Is Even Playing, But If It Is, Then This Is It)
e|-----------------------------------------------------------|
B|-------3~-------6~-------3~-------1~-----------------------|
G|-------3~-------7~-------3~-------2~-----------------------| 
D|-------5~-------5~-------5~-------3~-----------------------|
A|-------5~-------5~-------5~-------3~-----------------------|
E|-------3~----------------3~-------1~-----------------------|

e|-----------------------------------------------------------|
B|-------1~---3~---1~---3~------3~-------1~------------------|
G|-------2~---3~---2~---3~------3~-------2~------------------| 
D|-------3~---3~---3~---3~------5~-------3~------------------|
A|-------3~---1~---3~---1~------5~-------3~------------------|
E|-------1~--------1~-----------3~-------1~------------------|

e|-----------------------------------------------------------|
B|-------3~-------6~-------3~-------1~-----------------------|
G|-------3~-------7~-------3~-------2~-----------------------| 
D|-------5~-------5~-------5~-------3~-----------------------|
A|-------5~-------5~-------5~-------3~-----------------------|
E|-------3~----------------3~-------1~-----------------------|

e|-----------------------------------------------------------|
B|-------1~---3~---1~---3~------3~-------6~------------------|
G|-------2~---3~---2~---3~------3~-------7~------------------| 
D|-------3~---3~---3~---3~------5~-------5~------------------|
A|-------3~---1~---3~---1~------5~-------5~------------------|
E|-------1~--------1~-----------3~---------------------------|

Guitar 2
e|-----13-13-13---------------------13-13-13----------------------------|
B|--------------13-13-13-15-15-15-------------11-11-11-13-13-13---------|
G|----------------------------------------------------------------------|
D|----------------------------------------------------------------------|
A|----------------------------------------------------------------------|
E|----------------------------------------------------------------------|

e|----------------------------------------------------------------------|
B|-----10-10-10-11-11-11-10-10-10-11-11-11------------------------------|
G|------------------------------------------8~----10~-------------------|
D|----------------------------------------------------------------------|
A|----------------------------------------------------------------------|
E|----------------------------------------------------------------------|

e|-----13-13-13---------------------------------------------------------|
B|--------------10-10-10-11-11-11---------------11-10-------------------|
G|----------------------------------8~----10~---------------------------|
D|----------------------------------------------------------------------|
A|----------------------------------------------------------------------|
E|----------------------------------------------------------------------|

e|----------------------------------------------------------------------|
B|-----10-10-10-11-11-11-10-10-10-11-11-11------------------------------|
G|------------------------------------------8~-7-7-7----10~-------------|
D|----------------------------------------------------------------------|
A|----------------------------------------------------------------------|
E|----------------------------------------------------------------------|


Pre-Verse
Guitar 1
e|-------------------------------------------------------------|
B|-------3~-------6~-------3~-------6~-------8~----------------|
G|-------3~-------7~-------3~-------7~-------9~----------------|
D|-------5~-------5~-------5~-------5~-------7~----------------|
A|-------5~-------5~-------5~-------5~-------7~----------------|
E|-------3~----------------3~----------------------------------|


Guitar 2
e|---13-13-------------13-------------11-------------13-----------------|
B|---------15-13-11-13----13-15-13-15----15-13-11-13----13-15-13-15-----|
G|----------------------------------------------------------------------|
D|----------------------------------------------------------------------|
A|----------------------------------------------------------------------|
E|----------------------------------------------------------------------|

e|----11---------11---------13---------11----------------|
B|-------15-11------15-11------15-11------15-11----------|
G|-------------------------------------------------------|
D|-------------------------------------------------------|
A|-------------------------------------------------------|
E|-------------------------------------------------------|

e|----11---------11---------13---------13-11-------------|
B|-------15-11------15-11------15-11---------15-11~------|
G|-------------------------------------------------------|
D|-------------------------------------------------------|
A|-------------------------------------------------------|
E|-------------------------------------------------------|


Verse 2
Guitar 1
e|-------------------------------------------------------------|
B|-------3~-------6~-------3~-------6~-------8~----------------|
G|-------3~-------7~-------3~-------7~-------9~----------------|
D|-------5~-------5~-------5~-------5~-------7~----------------|
A|-------5~-------5~-------5~-------5~-------7~----------------|
E|-------3~----------------3~----------------------------------|

e|-------------------------------------------------------------|
B|-------3~-------6~-------1~-------3~-------1~------6~----6~--|
G|-------3~-------7~-------2~-------3~-------2~------7~----7~--|
D|-------5~-------5~-------3~-------3~-------3~------5~----5~--|
A|-------5~-------5~-------3~-------1~-------3~------5~----5~--|
E|-------3~----------------1~----------------1~----------------|

Guitar 2
(This comes in later, listen for it)
e|-------------------------------------------------------------|
B|---11-11-11--------------------------------------------------|
G|------------10-10-10-8-8-8-7-7-7----10-10-10-8-8-8-7-7-7-----|
D|-------------------------------------------------------------|
A|-------------------------------------------------------------|
E|-------------------------------------------------------------|

e|-------------------------------------------------------------|
B|---10-10-10-10-10-10-11-11-11--------------------------------|
G|------------------------------10-10-10-12-12-12-12-12-12-----|
D|-------------------------------------------------------------|
A|-------------------------------------------------------------|
E|-------------------------------------------------------------|


Chorus 
Guitar 1
e|-----------------------------------------------------------|
B|-------3~-------6~-------3~-------1~-----------------------|
G|-------3~-------7~-------3~-------2~-----------------------| 
D|-------5~-------5~-------5~-------3~-----------------------|
A|-------5~-------5~-------5~-------3~-----------------------|
E|-------3~----------------3~-------1~-----------------------|

e|-----------------------------------------------------------|
B|-------1~---3~---1~---3~------3~-------1~------------------|
G|-------2~---3~---2~---3~------3~-------2~------------------| 
D|-------3~---3~---3~---3~------5~-------3~------------------|
A|-------3~---1~---3~---1~------5~-------3~------------------|
E|-------1~--------1~-----------3~-------1~------------------|

e|-----------------------------------------------------------|
B|-------3~-------6~-------3~-------1~-----------------------|
G|-------3~-------7~-------3~-------2~-----------------------| 
D|-------5~-------5~-------5~-------3~-----------------------|
A|-------5~-------5~-------5~-------3~-----------------------|
E|-------3~----------------3~-------1~-----------------------|

e|-----------------------------------------------------------|
B|-------1~---3~---1~---3~------3~-------6~------------------|
G|-------2~---3~---2~---3~------3~-------7~------------------| 
D|-------3~---3~---3~---3~------5~-------5~------------------|
A|-------3~---1~---3~---1~------5~-------5~------------------|
E|-------1~--------1~-----------3~---------------------------|

Guitar 2
e|-----13-13-13---------------------13-13-13----------------------------|
B|--------------13-13-13-15-15-15-------------11-11-11-13-13-13---------|
G|----------------------------------------------------------------------|
D|----------------------------------------------------------------------|
A|----------------------------------------------------------------------|
E|----------------------------------------------------------------------|

e|----------------------------------------------------------------------|
B|-----10-10-10-11-11-11-10-10-10-11-11-11------------------------------|
G|------------------------------------------8~----10~-------------------|
D|----------------------------------------------------------------------|
A|----------------------------------------------------------------------|
E|----------------------------------------------------------------------|

e|-----13-13-13---------------------------------------------------------|
B|--------------10-10-10-11-11-11---------------11-10-------------------|
G|----------------------------------8~----10~---------------------------|
D|----------------------------------------------------------------------|
A|----------------------------------------------------------------------|
E|----------------------------------------------------------------------|

e|----------------------------------------------------------------------|
B|-----10-10-10-11-11-11-10-10-10-11-11-11------------------------------|
G|------------------------------------------8~-7-7-7----10~-----8---7---|
D|----------------------------------------------------------------------|
A|----------------------------------------------------------------------|
E|----------------------------------------------------------------------|


Bridge
Guitar 1
e|----------------------------------------------------------------------|
B|-------6~/8~\6~--6~/8~\6~--6~/8~\6~--6~/8~/10~--11~\10~\6~------------|
G|---3~-----------------------------------------------------------------|
D|----------------------------------------------------------------------|
A|----------------------------------------------------------------------|
E|----------------------------------------------------------------------|

e|----------------------------------------------------------------------|
B|---11~\10~\6~---11~\10~\6~---11~\10~\6~---11~\10~\6~------------------|
G|----------------------------------------------------------------------|
D|----------------------------------------------------------------------|
A|----------------------------------------------------------------------|
E|----------------------------------------------------------------------|

e|----------------------------------------------------------------------|
B|---11~/13~/15~---16~\15~\11~---11~/13~/15~----------------------------|
G|----------------------------------------------------------------------|
D|----------------------------------------------------------------------|
A|----------------------------------------------------------------------|
E|----------------------------------------------------------------------|


Any comments welcome


| /  slide up
| \  slide down
| h  hammer-on
| p  pull-off
| ~  vibrato
| +  harmonic
| x  Mute note
============================================================================
comments
We did not receive enough feedback on this tab! Please rate:
print report bad tab
1 2 3 4 5
I want to post or [tab]
guest
You may want to rate the tab now too:
select rating
Please do not post tabs as comments. Select "correction" instead!