Oops, an error
Loading. Please wait.

Helicopter Tab

ver4
21,616 views 1 this week
4 commentsread comments
1 2 3 4 5
accurate
x 6
Autoscroll
+/-
esc
set tempo
stop
Contributor
Difficulty
intermediate
Hey! There's an official Ultimate Guitar app which is ideal
for learning songs when you're away from computer. Get the app
WARNING: You are trying to view
                                    content from Ultimate-Guitar.com
                                    in an unauthorized application,
                                    which is prohibited.

                                    Please use an official Ultimate
                                    Guitar Tabs application for iPhone,
                                    iPad or Android to access legitimate
                                    chords, guitar, bass, and drum tabs
                                    from Ultimate-Guitar.com database.

                                    Type "ultimate guitar tabs" in Apple
                                    App Store's or Android Market's
                                    search to find the application.
HELICOPTER
As recorded by Bloc Party
(From the 2005 Album SILENT ALARM)


        

Words and Music by Bloc Party
Arranged by Bloc Party

Gtr I (E A D G B E) - 'Untitled'
Gtr II (E A D G B E) - 'Untitled'
Gtr III (E A D G B E) - 'Untitled'

   Intro
    Q=170
    N.C.
   4/4
    Gtr I
    E E E E E E E E   E E E E E E  E E   E E E E E E E E   E E E E E E  E E   4x
||------------------|------------------|-----------------|--------------------||
||o-----------------|---------2-2--0-0-|-----------------|---------2-2--0-0--o||
||------2-2-0-0-----|------------------|-----2-2-0-0-----|--------------------||
||--------------4-4-|-----4-4----------|-------------4-4-|-----4-4------------||
||o-2-2-------------|-0-0--------------|-2-2-------------|-0-0---------------o||
||------------------|------------------|-----------------|--------------------||
|
|   Gtr II
|   E E E E E E E E   E E E E E E  E E   E E E E E E E E   E E E E E E  E E   4x
||------------------|------------------|-----------------|--------------------||
||o-----------------|------------------|-----------------|-------------------o||
||------4-4-2-2-----|------------------|-----4-4-2-2-----|--------------------||
||--------------4-4-|-----2-2----------|-------------4-4-|-----2-2------------||
||o-2-2-------------|-0-0-----0-0-/4-2-|-2-2-------------|-0-0-----0-0-/4-2--o||
||------------------|------------------|-----------------|--------------------||


   Verse
      B5                              D5         E5
    E E E E E Q  E   E E E E H      E E E E E Q  E   E E E E H
||-----------------|--------------|----------------|---------------||
||o----------------|--------------|----------------|--------------o||
||----4-4-4-4----4-|-4-4-4--------|---7-7-7-7----9-|-9-9-9---------||
||----4-4-4-4----4-|-4-4-4--------|---7-7-7-7----9-|-9-9-9---------||
||o---2-2-2-2----2-|-2-2-2--------|---5-5-5-5----7-|-7-7-7--------o||
||-----------------|--------------|----------------|---------------||


    B5                                     D5          E5
  Gtr I
  E E E E E Q   E    E E E E H          E  E E E E Q   E   E E E E H
|-----------------|------------------|-------------------|-------------------|
|-----------------|------------------|-------------------|-------------------|
|---4-4-4-4-----4-|--4-4-4-----------|-----7-7-7-7-----9-|-9-9-9-------------|
|---4-4-4-4-----4-|--4-4-4-----------|-----7-7-7-7-----9-|-9-9-9-------------|
|---2-2-2-2-----2-|--2-2-2-----------|-----5-5-5-5-----7-|-7-7-7-------------|
|-----------------|------------------|-------------------|-------------------|
|
| Gtr II
| E E E E E E E E    Q   Q   E E E E   +E  E E E E E E E   Q   Q   E  E E E
|-----------------|------------------|-------------------|---------7-10------|
|---------7-------|-10---7-----------|-------------------|-8---7--------7----|
|-----7-----7---7-|----------7-9-7-7-|-(7)---7---9-7---7-|----------------7--|
|---9---9-----9---|------------------|-----9---9-----9---|-------------------|
|-----------------|------------------|-------------------|-------------------|
|-----------------|------------------|-------------------|-------------------|


      B5                                     D5          E5
   E  E E E E Q   E    E E E E H          E  E E E E Q   E   E E E E H
|-------------------|------------------|-------------------|----------------|
|-------------------|------------------|-------------------|----------------|
|-----4-4-4-4-----4-|--4-4-4-----------|-----7-7-7-7-----9-|-9-9-9----------|
|-----4-4-4-4-----4-|--4-4-4-----------|-----7-7-7-7-----9-|-9-9-9----------|
|-----2-2-2-2-----2-|--2-2-2-----------|-----5-5-5-5-----7-|-7-7-7----------|
|-------------------|------------------|-------------------|----------------|
|
| +E  E E E E E E E    Q   Q   E E E E   +E  E E E E E E E   Q   Q   Q  Q
|-------------------|------------------|-------------------|----------------|
|-----------7-------|-10---7-----------|-------------------|-8---7----------|
|-(7)---7-----7---7-|----------7-9-7-7-|-(7)---7---9-7---7-|---------7--9---|
|-----9---9-----9---|------------------|-----9---9-----9---|----------------|
|-------------------|------------------|-------------------|----------------|
|-------------------|------------------|-------------------|----------------|


   Pre-Chorus
    $
    F#5               B5                F#5               B5
                                                         2/4
    Gtr I
    E E Q   E E Q     E E Q   E E Q     E E Q   E E Q     Q   Q
||--x-x-2---x-x-2---|-x-x-2---x-x-2---|-x-x-2---x-x-2---|-----2--|
||o-x-x-2---x-x-2---|-x-x-3---x-x-3---|-x-x-2---x-x-2---|-----3--|
||--x-x-3---x-x-3---|-x-x-4---x-x-4---|-x-x-3---x-x-3---|-----4--|
||--x-x-4---x-x-4---|-x-x-4---x-x-4---|-x-x-4---x-x-4---|-----4--|
||o-x-x-4---x-x-4---|-x-x-2---x-x-2---|-x-x-4---x-x-4---|-----2--|
||------------------|-----------------|-----------------|--------|
|
|   Gtr II
|   E E E E E E E E   E E E E E E E E   E E E E E E E E   E E Q
||------------------|-----------------|-----------------|--------|
||o-----------------|-----------------|-----------------|--------|
||------------------|-4-4-4-4-4-4-4-4-|-----------------|-4-4----|
||--4-4-4-4-4-4-4-4-|-4-4-4-4-4-4-4-4-|-4-4-4-4-4-4-4-4-|-4-4----|
||o-4-4-4-4-4-4-4-4-|-2-2-2-2-2-2-2-2-|-4-4-4-4-4-4-4-4-|-2-2----|
||--2-2-2-2-2-2-2-2-|-----------------|-2-2-2-2-2-2-2-2-|--------|


     F#5                             D5
 4/4
  Q  Q   E E Q     E E Q   E E Q     E E Q   E E Q     E E Q   E E Q
|----2---x-x-2---|-x-x-2---x-x-2---|-----------------|-----------------||
|----2---x-x-2---|-x-x-3---x-x-3---|-x-x-7---x-x-7---|-x-x-7---x-x-7--o||
|----3---x-x-3---|-x-x-4---x-x-4---|-x-x-7---x-x-7---|-x-x-7---x-x-7---||
|----4---x-x-4---|-x-x-4---x-x-4---|-x-x-7---x-x-7---|-x-x-7---x-x-7---||
|----4---x-x-4---|-x-x-2---x-x-2---|-x-x-5---x-x-5---|-x-x-5---x-x-5--o||
|----------------|-----------------|-----------------|-----------------||
|
| Q  E E E E E E   E E E E E E E E   E E E E E E E E   E E E E E E Q
|----------------|-----------------|-----------------|-----------------||
|----------------|-----------------|-----------------|-----------5-7--o||
|----------------|-4-4-4-4-4-4-4-4-|-7-7-7-7-7-7-7-7-|-7-7-7-7-7-7-7---||
|----4-4-4-4-4-4-|-4-4-4-4-4-4-4-4-|-7-7-7-7-7-7-7-7-|-7-7-7-7-7-7-7---||
|----4-4-4-4-4-4-|-2-2-2-2-2-2-2-2-|-5-5-5-5-5-5-5-5-|-5-5-5-5-5------o||
|----2-2-2-2-2-2-|-----------------|-----------------|-----------------||


   Chorus
    B
     E  E  E     E  E  E  E     E    E  E  E     E  E  E  E    E
||--------------------------------|------------------------------|
||o-------------------------------|------------------------------|
||--16-16-16----16-16-16-16----16-|-14-14-14----14-14-14-14---14-|
||---x--x--x-----x--x--x--x-----x-|--x--x--x-----x--x--x--x----x-|
||o-14-14-14----14-14-14-14----14-|-12-12-12----12-12-12-12---12-|
||--------------------------------|------------------------------|
|
|    Q     Q        Q     Q          Q     Q        Q     Q
||--------------------------------|------------------------------|
||o--------7--------------7-------|--------7--------------3------|
||---------9b11-----------9b11----|--------9b11-----------5b7----|
||--------------------------------|------------------------------|
||o-------------------------------|------------------------------|
||--------------------------------|------------------------------|


  G                                              F#5
   E  E  E     E  E  E  E     E   E E E    E E E Q
|-------------------------------|-----------------------||
|-------------------------------|----------------------o||
|-12-12-12----12-12-12-12----12-|-----------------------||
|--x--x--x-----x--x--x--x-----x-|-x-x-x----x-x-x-4------||
|-10-10-10----10-10-10-10----10-|-x-x-x----x-x-x-4-----o||
|-------------------------------|-x-x-x----x-x-x-2------||
|
|  Q     Q        Q     Q         Q   Q      Q   Q
|-------------------------------|-----------------------||
|--------7--------------7-------|-----7----------7-----o||
|--------9b11-----------9b11----|-----9b11-------9b11---||
|-------------------------------|-----------------------||
|-------------------------------|----------------------o||
|-------------------------------|-----------------------||


  B5                        A5
   E  E  E  E  E  E  E  E    E  E  E  E  E  E  E  E
|-------------------------|-------------------------|
|-------------------------|-------------------------|
|-16-16-16-16-16-16-16-16-|-14-14-14-14-14-14-14-14-|
|--x--x--x--x--x--x--x--x-|--x--x--x--x--x--x--x--x-|
|-14-14-14-14-14-14-14-14-|-12-12-12-12-12-12-12-12-|
|-------------------------|-------------------------|
|
|  E  E  E  E  E  E  E  E    E  E  E  E  E  E  E  E
|-------------------------|-------------------------|
|-------------------------|-------------------------|
|--4--4--4--4--4--4--4--4-|--2--2--2--2--2--2--2--2-|
|--4--4--4--4--4--4--4--4-|--2--2--2--2--2--2--2--2-|
|--2--2--2--2--2--2--2--2-|--0--0--0--0--0--0--0--0-|
|-------------------------|-------------------------|


  G5                        F#5
   E  E  E  E  E  E  E  E    E  E  E E E E E E
|-------------------------|---------------------|
|-------------------------|---------------------|
|-12-12-12-12-12-12-12-12-|-12s11-11s7-7s9-9-0--|
|--x--x--x--x--x--x--x--x-|--x--x--x-x-x-x-x-0--|
|-10-10-10-10-10-10-10-10-|-10s=9--9s5-5s7-7-0--|
|-------------------------|---------------------|
|
|  E  E  E  E  E  E  E  E    E  E  E E E E E E
|-------------------------|---------------------|
|-------------------------|---------------------|
|-------------------------|---------------------|
|--5--5--5--5--5--5--5--5-|--4--4--4-4-4-4-4-4--|
|--5--5--5--5--5--5--5--5-|--4--4--4-4-4-4-4-4--|
|--3--3--3--3--3--3--3--3-|--2--2--2-2-2-2-2-2--|


  B5                        A5
   E  E  E  E  E  E  E  E    E  E  E  E  E  E  E  E
|-------------------------|-------------------------|
|-------------------------|-------------------------|
|-16-16-16-16-16-16-16-16-|-14-14-14-14-14-14-14-14-|
|--x--x--x--x--x--x--x--x-|--x--x--x--x--x--x--x--x-|
|-14-14-14-14-14-14-14-14-|-12-12-12-12-12-12-12-12-|
|-------------------------|-------------------------|
|
|  E  E  E  E  E  E  E  E    E  E  E  E  E  E  E  E
|-------------------------|-------------------------|
|-------------------------|-------------------------|
|--4--4--4--4--4--4--4--4-|--2--2--2--2--2--2--2--2-|
|--4--4--4--4--4--4--4--4-|--2--2--2--2--2--2--2--2-|
|--2--2--2--2--2--2--2--2-|--0--0--0--0--0--0--0--0-|
|-------------------------|-------------------------|
|
| Gtr III
|  W                         Q     Q     Q     Q
|-------------------------|-------------------------|
|-------------------------|-10-----8-----7----------|
|-------------------------|--------------------9----|
|-------------------------|-------------------------|
|-------------------------|-------------------------|
|-------------------------|-------------------------|


                                          To Coda
  G5                         F#5
   E  E  E   E  E  E  E  E    E   E  E  E  E E E E
|--------------------------|------------------------|
|--------------------------|------------------------|
|-12-12-12--12-12-12-12-12-|-12s=11-11s16-16s9-9-0--|
|--x--x--x---x--x--x--x--x-|--x---x--x--x--x-x-x-0--|
|-10-10-10--10-10-10-10-10-|-10s==9--9s14-14s7-7-0--|
|--------------------------|------------------------|
|
|  E  E  E   E  E  E  E  E    E   E  E  E  E E E E
|--------------------------|------------------------|
|--------------------------|------------------------|
|--------------------------|------------------------|
|--5--5--5---5--5--5--5--5-|--4---4--4--4--4-4-4-4--|
|--5--5--5---5--5--5--5--5-|--4---4--4--4--4-4-4-4--|
|--3--3--3---3--3--3--3--3-|--2---2--2--2--2-2-2-2--|
|
|  E  E  H.                  +W
|--------------------------|------------------------|
|--------------------------|------------------------|
|--9-11--7-----------------|-(7)--------------------|
|--------------------------|------------------------|
|--------------------------|------------------------|
|--------------------------|------------------------|


   Pre-Verse
    N.C.
    Gtr I
    E E E E E E E E   E E E E E E  E E   E E E E E E E E   E E E E E E  E E
||------------------|------------------|-----------------|-------------------||
||o-----------------|---------2-2--0-0-|-----------------|---------2-2--0-0-o||
||------2-2-0-0-----|------------------|-----2-2-0-0-----|-------------------||
||--------------4-4-|-----4-4----------|-------------4-4-|-----4-4-----------||
||o-2-2-------------|-0-0--------------|-2-2-------------|-0-0--------------o||
||------------------|------------------|-----------------|-------------------||
|
|   Gtr II
|   E E E E E E E E   E E E E E E  E E   E E E E E E E E   E E E E E E  E E
||------------------|------------------|-----------------|-------------------||
||o-----------------|------------------|-----------------|------------------o||
||------4-4-2-2-----|------------------|-----4-4-2-2-----|-------------------||
||--------------4-4-|-----2-2----------|-------------4-4-|-----2-2-----------||
||o-2-2-------------|-0-0-----0-0-/4-2-|-2-2-------------|-0-0-----0-0-/4-2-o||
||------------------|------------------|-----------------|-------------------||


   Verse
      B5                              D5         E5
    E E E E E Q  E   E E E E H      E E E E E Q  E   E E E E H
||-----------------|--------------|----------------|---------------||
||o----------------|--------------|----------------|--------------o||
||----4-4-4-4----4-|-4-4-4--------|---7-7-7-7----9-|-9-9-9---------||
||----4-4-4-4----4-|-4-4-4--------|---7-7-7-7----9-|-9-9-9---------||
||o---2-2-2-2----2-|-2-2-2--------|---5-5-5-5----7-|-7-7-7--------o||
||-----------------|--------------|----------------|---------------||


    B5
  Gtr I
  E E E E E Q   E    E E E E H
|-----------------|------------------|
|-----------------|------------------|
|---4-4-4-4-----4-|--4-4-4-----------|
|---4-4-4-4-----4-|--4-4-4-----------|
|---2-2-2-2-----2-|--2-2-2-----------|
|-----------------|------------------|
|
| Gtr II
| E E E E E E E E    Q   Q   E E E E
|-----------------|------------------|
|---------7-------|-10---7-----------|
|-----7-----7---7-|----------7-9-7-7-|
|---9---9-----9---|------------------|
|-----------------|------------------|
|-----------------|------------------|


      D5          E5
   E  E E E E Q   E   E E E E H
|-------------------|-----------------------|
|-------------------|-----------------------|
|-----7-7-7-7-----9-|-9-9-9-----------------|
|-----7-7-7-7-----9-|-9-9-9-----------------|
|-----5-5-5-5-----7-|-7-7-7-----------------|
|-------------------|-----------------------|
|
| +E  E E E E E E E   Q   Q   q      q
|-------------------|-----------------------|
|-------------------|-8---7---7------8------|
|-(7)---7---9-7---7-|---------9b11--10b13---|
|-----9---9-----9---|-----------------------|
|-------------------|-----------------------|
|-------------------|-----------------------|


                                                            D.S. al Coda
    B5                                     D5          E5
  E E E E E Q   E    E E E E H          E  E E E E Q   E   E E E E H
|-----------------|------------------|-------------------|----------------|
|-----------------|------------------|-------------------|----------------|
|---4-4-4-4-----4-|--4-4-4-----------|-----7-7-7-7-----9-|-9-9-9----------|
|---4-4-4-4-----4-|--4-4-4-----------|-----7-7-7-7-----9-|-9-9-9----------|
|---2-2-2-2-----2-|--2-2-2-----------|-----5-5-5-5-----7-|-7-7-7----------|
|-----------------|------------------|-------------------|----------------|
|
| E E E E E E E E    Q   Q   E E E E   +E  E E E E E E E   Q   Q   Q  Q
|-----------------|------------------|-------------------|----------------|
|---------7-------|-10---7-----------|-------------------|-8---7----------|
|-----7-----7---7-|----------7-9-7-7-|-(7)---7---9-7---7-|---------7--9---|
|---9---9-----9---|------------------|-----9---9-----9---|----------------|
|-----------------|------------------|-------------------|----------------|
|-----------------|------------------|-------------------|----------------|


 Interlude
  &
  N.C.
   TP           TP    TP      TP           TP    TP
   W           +H     H       W           +H     H
|-----------|--------------|-----------|--------------|
|-12--------|-(12)----x----|-12--------|-(12)----x----|
|-----------|--------------|-----------|--------------|
|-----------|--------------|-----------|--------------|
|-----------|--------------|-----------|--------------|
|-----------|--------------|-----------|--------------|


  N.C.
   TP              TP     TP        TP              TP     TP
   W              +H      H         W              +H      H
|--------------|-----------------|--------------|------------------|
|-12-----------|-(12)-----x------|-12-----------|-(12)-----x-------|
|--------------|-----------------|--------------|------------------|
|--------------|-----------------|--------------|------------------|
|--------------|-----------------|--------------|------------------|
|--------------|-----------------|--------------|------------------|
|
| Gtr II
|  Q   H    Q      Q   Q  Q   Q     Q   H    Q      Q   Q  Q   Q
|--7--10----7--|------10-----10--|--7--10----7--|------10-----10---|
|--------------|--10------8------|--------------|--10------8-------|
|--------------|-----------------|--------------|------------------|
|--------------|-----------------|--------------|------------------|
|--------------|-----------------|--------------|------------------|
|--------------|-----------------|--------------|------------------|
|
| Gtr III
|  TP              TP               TP              TP
|  W               W                W               W
|--0s==========|===2s============|==5s==========|===7s=============|
|--------------|-----------------|--------------|------------------|
|--------------|-----------------|--------------|------------------|
|--------------|-----------------|--------------|------------------|
|--------------|-----------------|--------------|------------------|
|--------------|-----------------|--------------|------------------|


  N.C.
   TP              TP     TP        TP              TP      TP
   W              +H      H         W              +H       H
|--------------|-----------------|--------------|-------------------|
|-12-----------|-(12)-----x------|-12-----------|-(12)------x-------|
|--------------|-----------------|--------------|-------------------|
|--------------|-----------------|--------------|-------------------|
|--------------|-----------------|--------------|-------------------|
|--------------|-----------------|--------------|-------------------|
|
|  Q   H    Q      Q   Q  Q   Q     Q   H    Q      Q    Q  Q   Q
|--7--10----7--|------10-----10--|--7--10----7--|-------10-----10---|
|--------------|--10------8------|--------------|--10-------8-------|
|--------------|-----------------|--------------|-------------------|
|--------------|-----------------|--------------|-------------------|
|--------------|-----------------|--------------|-------------------|
|--------------|-----------------|--------------|-------------------|
|
|  TP              TP               TP              TP
|  W               W                W               W
|--9s==========|==11s============|=13s==========|==15---------------|
|--------------|-----------------|--------------|-------------------|
|--------------|-----------------|--------------|-------------------|
|--------------|-----------------|--------------|-------------------|
|--------------|-----------------|--------------|-------------------|
|--------------|-----------------|--------------|-------------------|


  N.C.
   TP              TP     TP        TP              TP      TP
   W              +H      H         W              +H       H
|--------------|-----------------|--------------|-------------------|
|-12-----------|-(12)-----x------|-12-----------|-(12)------x-------|
|--------------|-----------------|--------------|-------------------|
|--------------|-----------------|--------------|-------------------|
|--------------|-----------------|--------------|-------------------|
|--------------|-----------------|--------------|-------------------|
|
|  Q   H    Q      Q   Q  Q   Q     Q   H    Q      Q    Q  Q   Q
|--7--10----7--|------10-----10--|--7--10----7--|-------10-----10---|
|--------------|--10------8------|--------------|--10-------8-------|
|--------------|-----------------|--------------|-------------------|
|--------------|-----------------|--------------|-------------------|
|--------------|-----------------|--------------|-------------------|
|--------------|-----------------|--------------|-------------------|
|
|  TP              TP               TP              TP
|  W               W                W               W
|-16s==========|==17s============|=18s==========|==19---------------|
|--------------|-----------------|--------------|-------------------|
|--------------|-----------------|--------------|-------------------|
|--------------|-----------------|--------------|-------------------|
|--------------|-----------------|--------------|-------------------|
|--------------|-----------------|--------------|-------------------|


 Outro
  B                         A
   E  E  E  E  E  E  E  E     E   E  E  E  E  E  E  E
|-------------------------|---------------------------|
|-------------------------|---------------------------|
|-16-16-16-16-16-16-16-16-|--14--14-14-14-14-14-14-14-|
|--x--x--x--x--x--x--x--x-|---x---x--x--x--x--x--x--x-|
|-14-14-14-14-14-14-14-14-|--12--12-12-12-12-12-12-12-|
|-------------------------|---------------------------|
|
|  Q     Q     Q     Q        Q      Q     Q     Q
|-10----15----14----10----|--15-----14----10----15----|
|-------------------------|---------------------------|
|-------------------------|---------------------------|
|-------------------------|---------------------------|
|-------------------------|---------------------------|
|-------------------------|---------------------------|
|
|                             >
|  TP                         TP
|  W                         +W
|-19----------------------|-(19)----------------------|
|-------------------------|---------------------------|
|-------------------------|---------------------------|
|-------------------------|---------------------------|
|-------------------------|---------------------------|
|-------------------------|---------------------------|


  G                           G     F#  D   E
    E   E  E  E  E  E  E  E     Q    Q   Q   Q
|---------------------------|--------------------|
|---------------------------|--------------------|
|--12--12-12-12-12-12-12-12-|--12---11---7---9---|
|---x---x--x--x--x--x--x--x-|---x----x---x---x---|
|--10--10-10-10-10-10-10-10-|--10----9---5---7---|
|---------------------------|--------------------|
|
|   Q      Q     Q     Q        Q    Q   Q   Q
|--14-----10----15----14----|--10---15--14--10---|
|---------------------------|--------------------|
|---------------------------|--------------------|
|---------------------------|--------------------|
|---------------------------|--------------------|
|---------------------------|--------------------|
|
|   TP                          TP
|  +W                          +W
|-(19)----------------------|-(19)---------------|
|---------------------------|--------------------|
|---------------------------|--------------------|
|---------------------------|--------------------|
|---------------------------|--------------------|
|---------------------------|--------------------|


    B                         A
     E  E  E  E  E  E  E  E    E  E  E  E  E  E  E  E
||--------------------------|-------------------------|
||o-------------------------|-------------------------|
||--16-16-16-16-16-16-16-16-|-14-14-14-14-14-14-14-14-|
||---x--x--x--x--x--x--x--x-|--x--x--x--x--x--x--x--x-|
||o-14-14-14-14-14-14-14-14-|-12-12-12-12-12-12-12-12-|
||--------------------------|-------------------------|
|
|    Q     Q     Q     Q       Q     Q     Q     Q
||--10----15----14----10----|-15----14----10----15----|
||o-------------------------|-------------------------|
||--------------------------|-------------------------|
||--------------------------|-------------------------|
||o-------------------------|-------------------------|
||--------------------------|-------------------------|


  G                         G   F#  D   E
   E  E  E  E  E  E  E  E    Q   Q   Q   Q
|-------------------------|------------------||
|-------------------------|-----------------o||
|-12-12-12-12-12-12-12-12-|-12--11---7---9---||
|--x--x--x--x--x--x--x--x-|--x---x---x---x---||
|-10-10-10-10-10-10-10-10-|-10---9---5---7--o||
|-------------------------|------------------||
|
|  Q     Q     Q     Q       Q   Q   Q   Q
|-14----10----15----14----|-10--15--14--10---||
|-------------------------|-----------------o||
|-------------------------|------------------||
|-------------------------|------------------||
|-------------------------|-----------------o||
|-------------------------|------------------||


  B                         A5
   E  E  E  E  E  E  E  E    E E  E E  E E  E E
|-------------------------|---------------------|
|-------------------------|---------------------|
|-16-16-16-16-16-16-16-16-|--2-2--2-2--2-2--2-2-|
|--x--x--x--x--x--x--x--x-|--2-2--2-2--2-2--2-2-|
|-14-14-14-14-14-14-14-14-|--0-0--0-0--0-0--0-0-|
|-------------------------|---------------------|
|
|  Q     Q     Q     Q       Q    Q    Q    Q
|-10----15----14----10----|-15---14---10---15---|
|-------------------------|---------------------|
|-------------------------|---------------------|
|-------------------------|---------------------|
|-------------------------|---------------------|
|-------------------------|---------------------|


  G5                    F#5
   E E  E E  E E  E E    E E  E E  E E  E E
|---------------------|----------------------|
|---------------------|----------------------|
|---------------------|----------------------|
|--5-5--5-5--5-5--5-5-|--4-4--4-4--4-4--4-4--|
|--5-5--5-5--5-5--5-5-|--4-4--4-4--4-4--4-4--|
|--3-3--3-3--3-3--3-3-|--2-2--2-2--2-2--2-2--|
|
|  Q    Q    Q    Q      Q    Q    Q    Q
|-14---10---15---14---|-10---15---14---10----|
|---------------------|----------------------|
|---------------------|----------------------|
|---------------------|----------------------|
|---------------------|----------------------|
|---------------------|----------------------|


  B5
   >
   W           +W            +W             W
|-----------|-------------|-------------|---------*|
|-----------|-------------|-------------|---------*|
|-----------|-------------|-------------|---------*|
|--4--------|--(4)--------|--(4)--------|---------*|
|--2--------|--(2)--------|--(2)--------|---------*|
|-----------|-------------|-------------|---------*|
|
|               >
|  W           +W            +W            +W
|-14--------|-(14)--------|-(14)--------|-(14)----*|
|-----------|-------------|-------------|---------*|
|-----------|-------------|-------------|---------*|
|-----------|-------------|-------------|---------*|
|-----------|-------------|-------------|---------*|
|-----------|-------------|-------------|---------*|



Duration Legend
---------------
W - whole; H - half; Q - quarter; E - 8th; S - 16th; T - 32nd; X - 64th; a - acciaccatura
+ - note tied to previous; . - note dotted; .. - note double dotted
Uncapitalized letters represent notes that are staccato (1/2 duration)
Irregular groupings are notated above the duration line
Duration letters will always appear directly above the note/fret number it represents the
duration for.  Duration letters with no fret number below them represent rests.  Multi-
bar rests are notated in the form Wxn, where n is the number of bars to rest for.  Low
melody durations appear below the staff

Tablature Legend
----------------
 h   - hammer-on
 p   - pull-off
 b   - bend
 pb  - pre-bend
 r   - bend release (if no number after the r, then release immediately)
 /\  - slide into or out of (from/to "nowhere")
 s   - legato slide
 S   - shift slide
 - natural harmonic
[n]  - artificial harmonic
n(n) - tapped harmonic
 ~   - vibrato
 tr  - trill
 T   - tap
 TP  - trem. picking
 PM  - palm muting
\n/  - tremolo bar dip; n = amount to dip
 \n  - tremolo bar down
 n/  - tremolo bar up
/n\  - tremolo bar inverted dip
 =   - hold bend; also acts as connecting device for hammers/pulls
 <> - volume swell (louder/softer)
 x   - on rhythm slash represents muted slash
 o   - on rhythm slash represents single note slash

Misc Legend
-----------
 |  - bar
||  - double bar
||o - repeat start
o|| - repeat end
*|  - double bar (ending)
 :  - bar (freetime)
 $  - Segno
 &  - Coda
Tempo markers -  = BPM(8/16=s8/s16), where s8 = swing 8ths, s16 = swing 16ths

comments
print report bad tab
4 comments total. Showing first comments.
0 reply
armitage_cake wrote on February 1 2006, 10:47 am

It's not bad but I've seen them play live and I know that this is wrong. Kele plays his part way way further up the fretboard... Good try though!

0 reply
bill-bones wrote on August 19 2006, 12:17 am

If youd have bothered to actually play it you would see they are the same notes just on a different part of the fretboard. Great Tab

0 reply
Paul Lambeth wrote on May 30 2007, 07:16 am

It's alright, but as armitage_cake says, for one the notes don't sound open, and for two they play it much higher up :P.

I want to post or [tab]
guest
You may want to rate the tab now too:
select rating
Please do not post tabs as comments. Select "correction" instead!