Oops, an error
Loading. Please wait.

Helicopter Tab

ver8
ver8
More versions @911Tabs.com
19,326 views 24 this week
4 commentsread comments
1 2 3 4 5
excellent!
x 14
Autoscroll
+/-
esc
set tempo
stop
Contributor
WARNING: You are trying to view
                                    content from Ultimate-Guitar.com
                                    in an unauthorized application,
                                    which is prohibited.

                                    Please use an official Ultimate
                                    Guitar Tabs application for iPhone,
                                    iPad or Android to access legitimate
                                    chords, guitar, bass, and drum tabs
                                    from Ultimate-Guitar.com database.

                                    Type "ultimate guitar tabs" in Apple
                                    App Store's or Android Market's
                                    search to find the application.
Artist: Bloc Party
Song: Helicopter
Tabber: Gavin Davis (RussellLissackLover www.blocparty.net)

Kele

     E  E  E  E  E   E  E  E     E  E  E    E   E   E  E  E
E||---------------------------|------------------------------|
B||---------------------------|------------------------------|
G||---------------------------|------------------------------|
D||--------9--9--7s--4--4--4--|--------4s--11--11--11--9--0--|
A||---------------------------|------------------------------|
E||--7--7---------------------|--5--5------------------------|


  E  E  E  E  E   E  E  E     E  E  E    E   E   E  E  E
---------------------------|------------------------------|
---------------------------|------------------------------|
---------------------------|------------------------------|
--L-----9--9--7s--4--4--4--|--------4s--11--11--11--9--0--|
---------------------------|------------------------------|
--7--7---------------------|--5--5------------------------|


  E  E  E  E  E   E  E  E     E  E  E    E   E   E  E  E
---------------------------|------------------------------|
---------------------------|------------------------------|
---------------------------|------------------------------|
--L-----9--9--7s--4--4--4--|--------4s--11--11--11--9--0--|
---------------------------|------------------------------|
--7--7---------------------|--5--5------------------------|


  E  E  E  E  E   E  E  E     E  E  E    E   E   E  E  E
---------------------------|------------------------------|
---------------------------|------------------------------|
---------------------------|------------------------------|
--L-----9--9--7s--4--4--4--|--------4s--11--11--11--9--0--|
---------------------------|------------------------------|
--7--7---------------------|--5--5------------------------|


  E  E  E  E  E   E  E  E     E  E  E    E   E   E  E  E
---------------------------|------------------------------|
---------------------------|------------------------------|
---------------------------|------------------------------|
--------9--9--7s--4--4--4--|--------4s--11--11--11--9--0--|
---------------------------|------------------------------|
--7--7---------------------|--5--5------------------------|


  E  E  E  E  E   E  E  E     E  E  E    E   E   E  E  E
---------------------------|------------------------------|
---------------------------|------------------------------|
---------------------------|------------------------------|
--L-----9--9--7s--4--4--4--|--------4s--11--11--11--9--0--|
---------------------------|------------------------------|
--7--7---------------------|--5--5------------------------|


  E  E  E  E  E   E  E  E     E  E  E    E   E   E  E  E
---------------------------|------------------------------|
---------------------------|------------------------------|
---------------------------|------------------------------|
--L-----9--9--7s--4--4--4--|--------4s--11--11--11--9--0--|
---------------------------|------------------------------|
--7--7---------------------|--5--5------------------------|


  E  E  E  E  E   E  E  E     E  E  E    E   E   E  E  E
---------------------------|------------------------------|
---------------------------|------------------------------|
---------------------------|------------------------------|
--L-----9--9--7s--4--4--4--|--------4s--11--11--11--9--9--|
---------------------------|------------------------------|
--7--7---------------------|--5--5------------------------|


  E  E  E  E  E  Q    E     E  E  Q    H           E   E   E   E   E  Q     E
-------------------------|----------------------|------------------------------|
-------------------------|----------------------|------------------------------|
-------------------------|----------------------|------------------------------|
-----9--9--9--9-------9--|--9--9--9-------------|-----12--12--12--12-------14--|
-----9--9--9--9-------9--|--9--9--9-------------|-----12--12--12--12-------14--|
-----7--7--7--7-------7--|--7--7--7-------------|-----10--10--10--10-------12--|


   E   E   Q    H           E  E  E  E  E  Q    E     E  E  Q    H
-------------------------|-------------------------|----------------------|
-------------------------|-------------------------|----------------------|
-------------------------|-------------------------|----------------------|
--14--14--14-------------|-----9--9--9--9-------9--|--9--9--9-------------|
--14--14--14-------------|-----9--9--9--9-------9--|--9--9--9-------------|
--12--12--12-------------|-----7--7--7--7-------7--|--7--7--7-------------|


  E   E   E   E   E  Q     E      E   E   Q    H
------------------------------|-------------------------|
------------------------------|-------------------------|
------------------------------|-------------------------|
-----12--12--12--12-------14--|--14--14--14-------------|
-----12--12--12--12-------14--|--14--14--14-------------|
-----10--10--10--10-------12--|--12--12--12-------------|


  E  E  E  E  E  Q    E     E  E  Q    H           E   E   E   E   E  Q     E
-------------------------|----------------------|------------------------------|
-------------------------|----------------------|------------------------------|
-------------------------|----------------------|------------------------------|
-----9--9--9--9-------9--|--9--9--9-------------|-----12--12--12--12-------14--|
-----9--9--9--9-------9--|--9--9--9-------------|-----12--12--12--12-------14--|
-----7--7--7--7-------7--|--7--7--7-------------|-----10--10--10--10-------12--|


   E   E   Q    H           E  E  E  E  E  Q    E     E  E  Q    H
-------------------------|-------------------------|----------------------|
-------------------------|-------------------------|----------------------|
-------------------------|-------------------------|----------------------|
--14--14--14-------------|-----9--9--9--9-------9--|--9--9--9-------------|
--14--14--14-------------|-----9--9--9--9-------9--|--9--9--9-------------|
--12--12--12-------------|-----7--7--7--7-------7--|--7--7--7-------------|


  E   E   E   E   E  Q     E      E   E   Q    H
------------------------------|-------------------------|
------------------------------|-------------------------|
------------------------------|-------------------------|
-----12--12--12--12-------14--|--14--14--14-------------|
-----12--12--12--12-------14--|--14--14--14-------------|
-----10--10--10--10-------12--|--12--12--12-------------|


  E  E  E  E  E  E  E  E     E  E  E  E  E  E  E  E
--------------------------|--------------------------|
--------------------------|--------------------------|
--------------------------|--------------------------|
--4--4--4--4--4--4--4--4--|--9--9--9--9--9--9--9--9--|
--4--4--4--4--4--4--4--4--|--9--9--9--9--9--9--9--9--|
--2--2--2--2--2--2--2--2--|--7--7--7--7--7--7--7--7--|


  E  E  E  E  E  E  E  E     Q    Q       E  E  E  E  E  E  E  E
--------------------------|------------|--------------------------|
--------------------------|------------|--------------------------|
--------------------------|------------|--------------------------|
--4--4--4--4--4--4--4--4--|--9----9----|--4--4--4--4--4--4--4--4--|
--4--4--4--4--4--4--4--4--|--9----9----|--4--4--4--4--4--4--4--4--|
--2--2--2--2--2--2--2--2--|--7----7----|--2--2--2--2--2--2--2--2--|


  E  E  E  E  E  E  E  E      E   E   E   E   E   E   E   E
--------------------------|----------------------------------|
--------------------------|----------------------------------|
--------------------------|----------------------------------|
--9--9--9--9--9--9--9--9--|--12--12--12--12--12--12--12--12--|
--9--9--9--9--9--9--9--9--|--12--12--12--12--12--12--12--12--|
--7--7--7--7--7--7--7--7--|--10--10--10--10--10--10--10--10--|


   E   E   E   E   E   E   E   E     E  E  E  E  E  E  E  E
----------------------------------|--------------------------|
----------------------------------|--------------------------|
----------------------------------|--------------------------|
--12--12--12--12--12--12--12--12--|--4--4--4--4--4--4--4--4--|
--12--12--12--12--12--12--12--12--|--4--4--4--4--4--4--4--4--|
--10--10--10--10--10--10--10--10--|--2--2--2--2--2--2--2--2--|


  E  E  E  E  E  E  E  E     E  E  E  E  E  E  E  E     Q    Q
--------------------------|--------------------------|------------|
--------------------------|--------------------------|------------|
--------------------------|--------------------------|------------|
--9--9--9--9--9--9--9--9--|--4--4--4--4--4--4--4--4--|--9----9----|
--9--9--9--9--9--9--9--9--|--4--4--4--4--4--4--4--4--|--9----9----|
--7--7--7--7--7--7--7--7--|--2--2--2--2--2--2--2--2--|--7----7----|


  E  E  E  E  E  E  E  E     E  E  E  E  E  E  E  E
--------------------------|--------------------------|
--------------------------|--------------------------|
--------------------------|--------------------------|
--4--4--4--4--4--4--4--4--|--9--9--9--9--9--9--9--9--|
--4--4--4--4--4--4--4--4--|--9--9--9--9--9--9--9--9--|
--2--2--2--2--2--2--2--2--|--7--7--7--7--7--7--7--7--|


   E   E   E   E   E   E   E   E      E   E   E   E   E   E   E   E
----------------------------------|----------------------------------|
----------------------------------|----------------------------------|
----------------------------------|----------------------------------|
--12--12--12--12--12--12--12--12--|--12--12--12--12--12--12--12--12--|
--12--12--12--12--12--12--12--12--|--12--12--12--12--12--12--12--12--|
--10--10--10--10--10--10--10--10--|--10--10--10--10--10--10--10--10--|


   E   E   E   E   E   E   E   E      E   E   E   E   E   E   E   E
----------------------------------|----------------------------------|
----------------------------------|----------------------------------|
--16--16--16--16--16--16--16--16--|--14--14--14--14--14--14--14--14--|
----------------------------------|----------------------------------|
--14--14--14--14--14--14--14--14--|--12--12--12--12--12--12--12--12--|
----------------------------------|----------------------------------|


   E   E   E   E   E   E   E   E      E   E  E  E   E   E  E  E
----------------------------------|------------------------------|
----------------------------------|------------------------------|
--12--12--12--12--12--12--12--12--|------------------------------|
----------------------------------|------------------------------|
--10--10--10--10--10--10--10--10--|----------------10--10--9--9--|
----------------------------------|--10--10--9--9----------------|


   E   E   E   E   E   E   E   E      E   E   E   E   E   E   E   E
----------------------------------|----------------------------------|
----------------------------------|----------------------------------|
--16--16--16--16--16--16--16--16--|--14--14--14--14--14--14--14--14--|
----------------------------------|----------------------------------|
--14--14--14--14--14--14--14--14--|--12--12--12--12--12--12--12--12--|
----------------------------------|----------------------------------|


   E   E   E   E   E   E   E   E      E   E  E  E   E   E  E  E
----------------------------------|------------------------------|
----------------------------------|------------------------------|
--12--12--12--12--12--12--12--12--|------------------------------|
----------------------------------|------------------------------|
--10--10--10--10--10--10--10--10--|----------------10--10--9--9--|
----------------------------------|--10--10--9--9----------------|


   E   E   E   E   E   E   E   E      E   E   E   E   E   E   E   E
----------------------------------|----------------------------------|
----------------------------------|----------------------------------|
--16--16--16--16--16--16--16--16--|--14--14--14--14--14--14--14--14--|
----------------------------------|----------------------------------|
--14--14--14--14--14--14--14--14--|--12--12--12--12--12--12--12--12--|
----------------------------------|----------------------------------|


   E   E   E   E   E   E   E   E      E   E  E  E   E   E  E  E
----------------------------------|------------------------------|
----------------------------------|------------------------------|
--12--12--12--12--12--12--12--12--|------------------------------|
----------------------------------|------------------------------|
--10--10--10--10--10--10--10--10--|----------------10--10--9--9--|
----------------------------------|--10--10--9--9----------------|


   E   E   E   E   E   E   E   E      E   E   E   E   E   E   E   E
----------------------------------|----------------------------------|
----------------------------------|----------------------------------|
--16--16--16--16--16--16--16--16--|--14--14--14--14--14--14--14--14--|
----------------------------------|----------------------------------|
--14--14--14--14--14--14--14--14--|--12--12--12--12--12--12--12--12--|
----------------------------------|----------------------------------|


   E   E   E   E   E   E   E   E      E   E   E   E   E   E   E   E
----------------------------------|----------------------------------|
----------------------------------|----------------------------------|
--12--12--12--12--12--12--12--12--|--12--12--12--12--12--12--12--12--|
----------------------------------|----------------------------------|
--10--10--10--10--10--10--10--10--|--10--10--10--10--10--10--10--10--|
----------------------------------|----------------------------------|


  E  E  E  E  E   E  E  E     E  E  E    E   E   E  E  E
---------------------------|------------------------------|
---------------------------|------------------------------|
---------------------------|------------------------------|
--------9--9--7s--4--4--4--|--------4s--11--11--11--9--0--|
---------------------------|------------------------------|
--7--7---------------------|--5--5------------------------|


  E  E  E  E  E   E  E  E     E  E  E    E   E   E  E  E
---------------------------|------------------------------|
---------------------------|------------------------------|
---------------------------|------------------------------|
--L-----9--9--7s--4--4--4--|--------4s--11--11--11--9--0--|
---------------------------|------------------------------|
--7--7---------------------|--5--5------------------------|


  E  E  E  E  E   E  E  E     E  E  E    E   E   E  E  E
---------------------------|------------------------------|
---------------------------|------------------------------|
---------------------------|------------------------------|
--L-----9--9--7s--4--4--4--|--------4s--11--11--11--9--0--|
---------------------------|------------------------------|
--7--7---------------------|--5--5------------------------|


  E  E  E  E  E   E  E  E     E  E  E    E   E   E  E  E
---------------------------|------------------------------|
---------------------------|------------------------------|
---------------------------|------------------------------|
--L-----9--9--7s--4--4--4--|--------4s--11--11--11--9--9--|
---------------------------|------------------------------|
--7--7---------------------|--5--5------------------------|


  E  E  E  E  E  Q    E     E  E  Q    H           E   E   E   E   E  Q     E
-------------------------|----------------------|------------------------------|
-------------------------|----------------------|------------------------------|
-------------------------|----------------------|------------------------------|
-----9--9--9--9-------9--|--9--9--9-------------|-----12--12--12--12-------14--|
-----9--9--9--9-------9--|--9--9--9-------------|-----12--12--12--12-------14--|
-----7--7--7--7-------7--|--7--7--7-------------|-----10--10--10--10-------12--|


   E   E   Q    H           E  E  E  E  E  Q    E     E  E  Q    H
-------------------------|-------------------------|----------------------|
-------------------------|-------------------------|----------------------|
-------------------------|-------------------------|----------------------|
--14--14--14-------------|-----9--9--9--9-------9--|--9--9--9-------------|
--14--14--14-------------|-----9--9--9--9-------9--|--9--9--9-------------|
--12--12--12-------------|-----7--7--7--7-------7--|--7--7--7-------------|


  E   E   E   E   E  Q     E      E   E   Q    H
------------------------------|-------------------------|
------------------------------|-------------------------|
------------------------------|-------------------------|
-----12--12--12--12-------14--|--14--14--14-------------|
-----12--12--12--12-------14--|--14--14--14-------------|
-----10--10--10--10-------12--|--12--12--12-------------|


  E  E  E  E  E  Q    E     E  E  Q    H           E   E   E   E   E  Q     E
-------------------------|----------------------|------------------------------|
-------------------------|----------------------|------------------------------|
-------------------------|----------------------|------------------------------|
-----9--9--9--9-------9--|--9--9--9-------------|-----12--12--12--12-------14--|
-----9--9--9--9-------9--|--9--9--9-------------|-----12--12--12--12-------14--|
-----7--7--7--7-------7--|--7--7--7-------------|-----10--10--10--10-------12--|


   E   E   Q    H           E  E  E  E  E  Q    E     E  E  Q    H
-------------------------|-------------------------|----------------------|
-------------------------|-------------------------|----------------------|
-------------------------|-------------------------|----------------------|
--14--14--14-------------|-----9--9--9--9-------9--|--9--9--9-------------|
--14--14--14-------------|-----9--9--9--9-------9--|--9--9--9-------------|
--12--12--12-------------|-----7--7--7--7-------7--|--7--7--7-------------|


  E   E   E   E   E  Q     E      E   E   Q    H
------------------------------|-------------------------|
------------------------------|-------------------------|
------------------------------|-------------------------|
-----12--12--12--12-------14--|--14--14--14-------------|
-----12--12--12--12-------14--|--14--14--14-------------|
-----10--10--10--10-------12--|--12--12--12-------------|


  E  E  E  E  E  E  E  E     E  E  E  E  E  E  E  E
--------------------------|--------------------------|
--------------------------|--------------------------|
--------------------------|--------------------------|
--4--4--4--4--4--4--4--4--|--9--9--9--9--9--9--9--9--|
--4--4--4--4--4--4--4--4--|--9--9--9--9--9--9--9--9--|
--2--2--2--2--2--2--2--2--|--7--7--7--7--7--7--7--7--|


  E  E  E  E  E  E  E  E     Q    Q       E  E  E  E  E  E  E  E
--------------------------|------------|--------------------------|
--------------------------|------------|--------------------------|
--------------------------|------------|--------------------------|
--4--4--4--4--4--4--4--4--|--9----9----|--4--4--4--4--4--4--4--4--|
--4--4--4--4--4--4--4--4--|--9----9----|--4--4--4--4--4--4--4--4--|
--2--2--2--2--2--2--2--2--|--7----7----|--2--2--2--2--2--2--2--2--|


  E  E  E  E  E  E  E  E      E   E   E   E   E   E   E   E
--------------------------|----------------------------------|
--------------------------|----------------------------------|
--------------------------|----------------------------------|
--9--9--9--9--9--9--9--9--|--12--12--12--12--12--12--12--12--|
--9--9--9--9--9--9--9--9--|--12--12--12--12--12--12--12--12--|
--7--7--7--7--7--7--7--7--|--10--10--10--10--10--10--10--10--|


   E   E   E   E   E   E   E   E     E  E  E  E  E  E  E  E
----------------------------------|--------------------------|
----------------------------------|--------------------------|
----------------------------------|--------------------------|
--12--12--12--12--12--12--12--12--|--4--4--4--4--4--4--4--4--|
--12--12--12--12--12--12--12--12--|--4--4--4--4--4--4--4--4--|
--10--10--10--10--10--10--10--10--|--2--2--2--2--2--2--2--2--|


  E  E  E  E  E  E  E  E     E  E  E  E  E  E  E  E     Q    Q
--------------------------|--------------------------|------------|
--------------------------|--------------------------|------------|
--------------------------|--------------------------|------------|
--9--9--9--9--9--9--9--9--|--4--4--4--4--4--4--4--4--|--9----9----|
--9--9--9--9--9--9--9--9--|--4--4--4--4--4--4--4--4--|--9----9----|
--7--7--7--7--7--7--7--7--|--2--2--2--2--2--2--2--2--|--7----7----|


  E  E  E  E  E  E  E  E     E  E  E  E  E  E  E  E
--------------------------|--------------------------|
--------------------------|--------------------------|
--------------------------|--------------------------|
--4--4--4--4--4--4--4--4--|--9--9--9--9--9--9--9--9--|
--4--4--4--4--4--4--4--4--|--9--9--9--9--9--9--9--9--|
--2--2--2--2--2--2--2--2--|--7--7--7--7--7--7--7--7--|


   E   E   E   E   E   E   E   E      E   E   E   E   E   E   E   E
----------------------------------|----------------------------------|
----------------------------------|----------------------------------|
----------------------------------|----------------------------------|
--12--12--12--12--12--12--12--12--|--12--12--12--12--12--12--12--12--|
--12--12--12--12--12--12--12--12--|--12--12--12--12--12--12--12--12--|
--10--10--10--10--10--10--10--10--|--10--10--10--10--10--10--10--10--|


   E   E   E   E   E   E   E   E      E   E   E   E   E   E   E   E
----------------------------------|----------------------------------|
----------------------------------|----------------------------------|
--16--16--16--16--16--16--16--16--|--14--14--14--14--14--14--14--14--|
----------------------------------|----------------------------------|
--14--14--14--14--14--14--14--14--|--12--12--12--12--12--12--12--12--|
----------------------------------|----------------------------------|


   E   E   E   E   E   E   E   E      E   E  E  E   E   E  E  E
----------------------------------|------------------------------|
----------------------------------|------------------------------|
--12--12--12--12--12--12--12--12--|------------------------------|
----------------------------------|------------------------------|
--10--10--10--10--10--10--10--10--|----------------10--10--9--9--|
----------------------------------|--10--10--9--9----------------|


   E   E   E   E   E   E   E   E      E   E   E   E   E   E   E   E
----------------------------------|----------------------------------|
----------------------------------|----------------------------------|
--16--16--16--16--16--16--16--16--|--14--14--14--14--14--14--14--14--|
----------------------------------|----------------------------------|
--14--14--14--14--14--14--14--14--|--12--12--12--12--12--12--12--12--|
----------------------------------|----------------------------------|


   E   E   E   E   E   E   E   E      E   E  E  E   E   E  E  E
----------------------------------|------------------------------|
----------------------------------|------------------------------|
--12--12--12--12--12--12--12--12--|------------------------------|
----------------------------------|------------------------------|
--10--10--10--10--10--10--10--10--|----------------10--10--9--9--|
----------------------------------|--10--10--9--9----------------|


   E   E   E   E   E   E   E   E      E   E   E   E   E   E   E   E
----------------------------------|----------------------------------|
----------------------------------|----------------------------------|
--16--16--16--16--16--16--16--16--|--14--14--14--14--14--14--14--14--|
----------------------------------|----------------------------------|
--14--14--14--14--14--14--14--14--|--12--12--12--12--12--12--12--12--|
----------------------------------|----------------------------------|


   E   E   E   E   E   E   E   E      E   E  E  E   E   E  E  E
----------------------------------|------------------------------|
----------------------------------|------------------------------|
--12--12--12--12--12--12--12--12--|------------------------------|
----------------------------------|------------------------------|
--10--10--10--10--10--10--10--10--|----------------10--10--9--9--|
----------------------------------|--10--10--9--9----------------|


   E   E   E   E   E   E   E   E      E   E   E   E   E   E   E   E
----------------------------------|----------------------------------|
----------------------------------|----------------------------------|
--16--16--16--16--16--16--16--16--|--14--14--14--14--14--14--14--14--|
----------------------------------|----------------------------------|
--14--14--14--14--14--14--14--14--|--12--12--12--12--12--12--12--12--|
----------------------------------|----------------------------------|


   E   E   E   E   E   E   E   E      E   E   E   E   E   E   E   E
----------------------------------|----------------------------------|
----------------------------------|----------------------------------|
--12--12--12--12--12--12--12--12--|--12--12--12--12--12--12--12--12--|
----------------------------------|----------------------------------|
--10--10--10--10--10--10--10--10--|--10--10--10--10--10--10--10--10--|
----------------------------------|----------------------------------|

In This Next Section Kele Is Seen Sliding From 12 to about fret 7 then back to fret 15 
doesn't actually hit the 7


     NH   NH   NH   NH   NH   NH   NH   NH   NH   NH   NH   NH   NH   NH   NH
     S    S    S    S    S    S    S    S    S    S    S    S    S    S    S
---------------------------------------------------------------------------------|
--<>12-<>12-<>12-<>12-<>12-<>12-<>12-<>12-<>12-<>12-<>12-<>12-<>12-<>12-<>12-<>1-|
---------------------------------------------------------------------------------|
---------------------------------------------------------------------------------|
---------------------------------------------------------------------------------|
---------------------------------------------------------------------------------|


     NH   NH   NH   NH   NH   NH   NH   NH   NH   NH   NH   NH   NH   NH   NH
     S    S    S    S    S    S    S    S    S    S    S    S    S    S    S
---------------------------------------------------------------------------------|
--<>12-<>12-<>12-<>12-<>12-<>12-<>12-<>12-<>12-<>12-<>12-<>15-<>15-<>15-<>15-<>1-|
---------------------------------------------------------------------------------|
---------------------------------------------------------------------------------|
---------------------------------------------------------------------------------|
---------------------------------------------------------------------------------|


     NH   NH   NH   NH   NH   NH   NH   NH   NH   NH   NH   NH   NH   NH   NH
     S    S    S    S    S    S    S    S    S    S    S    S    S    S    S
---------------------------------------------------------------------------------|
--<>12-<>12-<>12-<>12-<>12-<>12-<>12-<>12-<>12-<>12-<>12-<>12-<>12-<>12-<>12-<>1-|
---------------------------------------------------------------------------------|
---------------------------------------------------------------------------------|
---------------------------------------------------------------------------------|
---------------------------------------------------------------------------------|


     NH   NH   NH   NH   NH   NH   NH   NH   NH   NH   NH   NH   NH   NH   NH
     S    S    S    S    S    S    S    S    S    S    S    S    S    S    S
---------------------------------------------------------------------------------|
--<>12-<>12-<>12-<>12-<>12-<>12-<>12-<>12-<>12-<>12-<>12-<>15-<>15-<>15-<>15-<>1-|
---------------------------------------------------------------------------------|
---------------------------------------------------------------------------------|
---------------------------------------------------------------------------------|
---------------------------------------------------------------------------------|


     NH   NH   NH   NH   NH   NH   NH   NH   NH   NH   NH   NH   NH   NH   NH
     S    S    S    S    S    S    S    S    S    S    S    S    S    S    S
---------------------------------------------------------------------------------|
--<>12-<>12-<>12-<>12-<>12-<>12-<>12-<>12-<>12-<>12-<>12-<>12-<>12-<>12-<>12-<>1-|
---------------------------------------------------------------------------------|
---------------------------------------------------------------------------------|
---------------------------------------------------------------------------------|
---------------------------------------------------------------------------------|


     NH   NH   NH   NH   NH   NH   NH   NH   NH   NH   NH   NH   NH   NH   NH
     S    S    S    S    S    S    S    S    S    S    S    S    S    S    S
---------------------------------------------------------------------------------|
--<>12-<>12-<>12-<>12-<>12-<>12-<>12-<>12-<>12-<>12-<>12-<>15-<>15-<>15-<>15-<>1-|
---------------------------------------------------------------------------------|
---------------------------------------------------------------------------------|
---------------------------------------------------------------------------------|
---------------------------------------------------------------------------------|


     NH   NH   NH   NH   NH   NH   NH   NH   NH   NH   NH   NH   NH   NH   NH
     S    S    S    S    S    S    S    S    S    S    S    S    S    S    S
---------------------------------------------------------------------------------|
--<>12-<>12-<>12-<>12-<>12-<>12-<>12-<>12-<>12-<>12-<>12-<>12-<>12-<>12-<>12-<>1-|
---------------------------------------------------------------------------------|
---------------------------------------------------------------------------------|
---------------------------------------------------------------------------------|
---------------------------------------------------------------------------------|


     NH   NH   NH   NH   NH   NH   NH   NH   NH   NH   NH   NH   NH   NH   NH
     S    S    S    S    S    S    S    S    S    S    S    S    S    S    S
---------------------------------------------------------------------------------|
--<>12-<>12-<>12-<>12-<>12-<>12-<>12-<>12-<>12-<>12-<>12-<>15-<>15-<>15-<>15-<>1-|
---------------------------------------------------------------------------------|
---------------------------------------------------------------------------------|
---------------------------------------------------------------------------------|
---------------------------------------------------------------------------------|

In This Section Kele Is Actually Muting And Doing Harmonics On The Last Two Strings From 
12 And Gradualy Sliding Off The Fret Board And Over His Pickup
  S S S S S S S S S S S S S S S S    S S S S S S S S S S S S S S S S
--x-x-x-x-x-x-x-x-x-x-x-x-x-x-x-x-|--x-x-x-x-x-x-x-x-x-x-x-x-x-x-x-x-|
--x-x-x-x-x-x-x-x-x-x-x-x-x-x-x-x-|--x-x-x-x-x-x-x-x-x-x-x-x-x-x-x-x-|
----------------------------------|----------------------------------|
----------------------------------|----------------------------------|
----------------------------------|----------------------------------|
----------------------------------|----------------------------------|


  > > > > > > > > > > > > > > > >    > > > > > > > > > > > > > > > >
  S S S S S S S S S S S S S S S S    S S S S S S S S S S S S S S S S
--x-x-x-x-x-x-x-x-x-x-x-x-x-x-x-x-|--x-x-x-x-x-x-x-x-x-x-x-x-x-x-x-x-|
--x-x-x-x-x-x-x-x-x-x-x-x-x-x-x-x-|--x-x-x-x-x-x-x-x-x-x-x-x-x-x-x-x-|
----------------------------------|----------------------------------|
----------------------------------|----------------------------------|
----------------------------------|----------------------------------|
----------------------------------|----------------------------------|


  S S S S S S S S S S S S S S S S    S S S S S S S S S S S S S S S S
--x-x-x-x-x-x-x-x-x-x-x-x-x-x-x-x-|--x-x-x-x-x-x-x-x-x-x-x-x-x-x-x-x-|
--x-x-x-x-x-x-x-x-x-x-x-x-x-x-x-x-|--x-x-x-x-x-x-x-x-x-x-x-x-x-x-x-x-|
----------------------------------|----------------------------------|
----------------------------------|----------------------------------|
----------------------------------|----------------------------------|
----------------------------------|----------------------------------|


  S S S S S S S S S S S S S S S S    S S S S S S S S S S S S S S S S
--x-x-x-x-x-x-x-x-x-x-x-x-x-x-x-x-|--x-x-x-x-x-x-x-x-x-x-x-x-x-x-x-x-|
--x-x-x-x-x-x-x-x-x-x-x-x-x-x-x-x-|--x-x-x-x-x-x-x-x-x-x-x-x-x-x-x-x-|
----------------------------------|----------------------------------|
----------------------------------|----------------------------------|
----------------------------------|----------------------------------|
----------------------------------|----------------------------------|


   E   E   E   E   E   E   E   E      E   E   E   E   E   E   E   E
----------------------------------|----------------------------------|
----------------------------------|----------------------------------|
--16--16--16--16--16--16--16--16--|--14--14--14--14--14--14--14--14--|
----------------------------------|----------------------------------|
--14--14--14--14--14--14--14--14--|--12--12--12--12--12--12--12--12--|
----------------------------------|----------------------------------|


   E   E   E   E   E   E   E   E      E   E  E  E   E   E  E  E
----------------------------------|------------------------------|
----------------------------------|------------------------------|
--12--12--12--12--12--12--12--12--|------------------------------|
----------------------------------|------------------------------|
--10--10--10--10--10--10--10--10--|----------------10--10--9--9--|
----------------------------------|--10--10--9--9----------------|


   E   E   E   E   E   E   E   E      E   E   E   E   E   E   E   E
----------------------------------|----------------------------------|
----------------------------------|----------------------------------|
--16--16--16--16--16--16--16--16--|--14--14--14--14--14--14--14--14--|
----------------------------------|----------------------------------|
--14--14--14--14--14--14--14--14--|--12--12--12--12--12--12--12--12--|
----------------------------------|----------------------------------|


   E   E   E   E   E   E   E   E      E   E  E  E   E   E  E  E
----------------------------------|------------------------------|
----------------------------------|------------------------------|
--12--12--12--12--12--12--12--12--|------------------------------|
----------------------------------|------------------------------|
--10--10--10--10--10--10--10--10--|----------------10--10--9--9--|
----------------------------------|--10--10--9--9----------------|


   E   E   E   E   E   E   E   E      E   E   E   E   E   E   E   E
----------------------------------|----------------------------------|
----------------------------------|----------------------------------|
--16--16--16--16--16--16--16--16--|--14--14--14--14--14--14--14--14--|
----------------------------------|----------------------------------|
--14--14--14--14--14--14--14--14--|--12--12--12--12--12--12--12--12--|
----------------------------------|----------------------------------|


   E   E   E   E   E   E   E   E      E   E  E  E   E   E  E  E
----------------------------------|------------------------------|
----------------------------------|------------------------------|
--12--12--12--12--12--12--12--12--|------------------------------|
----------------------------------|------------------------------|
--10--10--10--10--10--10--10--10--|----------------10--10--9--9--|
----------------------------------|--10--10--9--9----------------|


   E   E   E   E   E   E   E   E      E   E   E   E   E   E   E   E
----------------------------------|----------------------------------|
----------------------------------|----------------------------------|
--16--16--16--16--16--16--16--16--|--14--14--14--14--14--14--14--14--|
----------------------------------|----------------------------------|
--14--14--14--14--14--14--14--14--|--12--12--12--12--12--12--12--12--|
----------------------------------|----------------------------------|


   E   E   E   E   E   E   E   E      E   E  E  E   E   E  E  E
----------------------------------|------------------------------|
----------------------------------|------------------------------|
--12--12--12--12--12--12--12--12--|------------------------------|
----------------------------------|------------------------------|
--10--10--10--10--10--10--10--10--|----------------10--10--9--9--|
----------------------------------|--10--10--9--9----------------|


  W
-------------------|-------------------|-------------------|-------------------|
-------------------|-------------------|-------------------|-------------------|
-------------------|-------------------|-------------------|-------------------|
-------------------|-------------------|-------------------|-------------------|
--9----------------|-------------------|-------------------|-------------------|
--7----------------|-------------------|-------------------|-------------------|

Russell

     E  E  E  E  E  E  E  E     E  E  E  E  E  E   E  E
E||--------------------------|---------------------------|
B||--------------------------|---------------------------|
G||--------------------------|---------------------------|
D||--------7--7--5--5--4--4--|---------------------------|
A||--------------------------|--7--7--5--5--7--7s--9--5--|
E||--7--7--------------------|---------------------------|


  E  E  E  E  E  E  E  E     E  E  E  E  E  E   E  E
--------------------------|---------------------------|
--------------------------|---------------------------|
--------------------------|---------------------------|
--------7--7--5--5--4--4--|---------------------------|
--L-----------------------|--7--7--5--5--7--7s--9--5--|
--7--7--------------------|---------------------------|


  E  E  E  E  E  E  E  E     E  E  E  E  E  E   E  E
--------------------------|---------------------------|
--------------------------|---------------------------|
--------------------------|---------------------------|
--------7--7--5--5--4--4--|---------------------------|
--L-----------------------|--7--7--5--5--7--7s--9--5--|
--7--7--------------------|---------------------------|


  E  E  E  E  E  E  E  E     E  E  E  E  E  E   E  E
--------------------------|---------------------------|
--------------------------|---------------------------|
--------------------------|---------------------------|
--------7--7--5--5--4--4--|---------------------------|
--L-----------------------|--7--7--5--5--7--7s--9--5--|
--7--7--------------------|---------------------------|


  E  E  E  E  E  E  E  E     E  E  E  E  E  E   E  E
--------------------------|---------------------------|
--------------------------|---------------------------|
--------------------------|---------------------------|
--------7--7--5--5--4--4--|---------------------------|
--------------------------|--7--7--5--5--7--7s--9--5--|
--7--7--------------------|---------------------------|


  E  E  E  E  E  E  E  E     E  E  E  E  E  E   E  E
--------------------------|---------------------------|
--------------------------|---------------------------|
--------------------------|---------------------------|
--------7--7--5--5--4--4--|---------------------------|
--L-----------------------|--7--7--5--5--7--7s--9--5--|
--7--7--------------------|---------------------------|


  E  E  E  E  E  E  E  E     E  E  E  E  E  E   E  E
--------------------------|---------------------------|
--------------------------|---------------------------|
--------------------------|---------------------------|
--------7--7--5--5--4--4--|---------------------------|
--L-----------------------|--7--7--5--5--7--7s--9--5--|
--7--7--------------------|---------------------------|


  E  E  E  E  E  E  E  E     E  E  E  E  E  E   E  E
--------------------------|---------------------------|-----|-----|-----|-----|
--------------------------|---------------------------|-----|-----|-----|-----|
--------------------------|---------------------------|-----|-----|-----|-----|
--------7--7--5--5--4--4--|---------------------------|-----|-----|-----|-----|
--L-----------------------|--7--7--5--5--7--7s--9--5--|-----|-----|-----|-----|
--7--7--------------------|---------------------------|-----|-----|-----|-----|


                          E  E  E  E  E  E  E  E      Q    Q    E  E  E  E
-----|-----|-----|-----|--------------------------|-------------------------|
-----|-----|-----|-----|-----7--7--7--7-----7-----|--10----7----7--7--7--7--|
-----|-----|-----|-----|-----7--7--7--7-----7-----|-------------7--9--7--7--|
-----|-----|-----|-----|-----------------9-----9--|-------------------------|
-----|-----|-----|-----|--------------------------|-------------------------|
-----|-----|-----|-----|--------------------------|-------------------------|


  E  E  E  E  E  E  E  E     Q    Q    E  E   E  E     E  E  E  E  E  E  E  E
--------------------------|---------------9---------|--------------------------|
--L--7--7--7--7-----7-----|--8----7----------10--7--|--L--7--7--7--7-----7-----|
-----7--7--7--7-----7-----|------------7------------|-----7--7--7--7-----7-----|
-----------------9-----9--|-------------------------|-----------------9-----9--|
--------------------------|-------------------------|--------------------------|
--------------------------|-------------------------|--------------------------|


   Q    Q    E  E  E  E     E  E  E  E  E  E  E  E     Q    Q    Q    Q
-------------------------|--------------------------|----------------------|
--10----7----7--7--7--7--|--L--7--7--7--7-----7-----|--8----7--------------|
-------------7--9--7--7--|-----7--7--7--7-----7-----|------------7----9----|
-------------------------|-----------------9-----9--|----------------------|
-------------------------|--------------------------|----------------------|
-------------------------|--------------------------|----------------------|


  Q    Q    Q    Q       Q    Q    Q    Q       Q    Q    Q    Q
----------------------|----------------------|----------------------|-------|
-------5---------7----|-------7---------8----|-------5---------7----|-------|
-------6---------6----|-------7---------7----|-------6---------6----|-------|
-------8---------8----|-------9---------9----|-------8---------8----|-------|
----------------------|----------------------|----------------------|-------|
----------------------|----------------------|----------------------|-------|


  Q    Q    Q    Q       Q    Q    Q    Q       Q    Q    Q    Q
----------------------|----------------------|----------------------|
-------5---------7----|-------7---------8----|-------7---------7----|
-------6---------6----|-------7---------7----|-------7---------7----|
-------8---------8----|-------9---------9----|-------7---------7----|
----------------------|----------------------|-------5---------5----|
----------------------|----------------------|----------------------|


  Q    Q    E   E   Q       Q    Q    Q    Q       Q    Q    Q    Q
------------9--10--12----|----------------------|----------------------|
-------7-----------------|-------5---------7----|-------7---------8----|
-------7-----------------|-------6---------6----|-------7---------7----|
-------7-----------------|-------8---------8----|-------9---------9----|
-------5-----------------|----------------------|----------------------|
-------------------------|----------------------|----------------------|


  Q    Q    Q    Q               Q    Q    Q    Q       Q    Q    Q    Q
----------------------|-------|----------------------|----------------------|
-------5---------7----|-------|-------5---------7----|-------7---------8----|
-------6---------6----|-------|-------6---------6----|-------7---------7----|
-------8---------8----|-------|-------8---------8----|-------9---------9----|
----------------------|-------|----------------------|----------------------|
----------------------|-------|----------------------|----------------------|


  Q    Q    Q    Q       Q    Q    E   E   Q       Q    Q     Q    Q
----------------------|------------9--10--12----|------------------------|
-------7---------7----|-------7-----------------|-------7----------7-----|
-------7---------7----|-------7-----------------|-------9b---------9b----|
-------7---------7----|-------7-----------------|------------------------|
-------5---------5----|-------5-----------------|------------------------|
----------------------|-------------------------|------------------------|


  Q    Q     Q    Q        Q    Q     Q    Q        Q    Q     Q    Q
------------------------|------------------------|------------------------|
-------7----------3-----|-------7----------7-----|-------7----------3-----|
-------9b---------5b----|-------9b---------9b----|-------9b---------5b----|
------------------------|------------------------|------------------------|
------------------------|------------------------|------------------------|
------------------------|------------------------|------------------------|


  Q    Q     Q    Q        Q    Q     Q    Q        Q    Q     Q    Q
------------------------|------------------------|------------------------|
-------7----------7-----|-------7----------3-----|-------7----------7-----|
-------9b---------9b----|-------9b---------5b----|-------9b---------9b----|
------------------------|------------------------|------------------------|
------------------------|------------------------|------------------------|
------------------------|------------------------|------------------------|


  Q    Q      E  E  Q       E  E  E  E  E  E  E  E     E  E  E  E  E  E  E  E
-------------------------|--------------------------|--------------------------|
-------7-----10--7-------|--------------------------|--------------------------|
-------9b-----------9----|--4--4--4--4--4--4--4--4--|--6--6--6--6--6--6--6--6--|
-------------------------|--------------------------|--------------------------|
-------------------------|--2--2--2--2--2--2--2--2--|--4--4--4--4--4--4--4--4--|
-------------------------|--------------------------|--------------------------|


   E   E   E   E   E   E   E   E      E   S  S  E  S S E  E  Q
----------------------------------|-------------------------------|
----------------------------------|-------------------------------|
--12--12--12--12--12--12--12--12--|--12--11-11-11--7-7-7--9--9----|
----------------------------------|-------------------------------|
--10--10--10--10--10--10--10--10--|--10---9--9--9--5-5-5--7--7----|
----------------------------------|-------------------------------|


  E  E  E  E  E  E  E  E      E   E  E  E  E  E  Q       E  Q    Q    E  Q
--------------------------|---------------------------|-----------------------|
--------------------------|--10--10--8--8--7--7--5----|--5--7---------5--7----|
--4--4--4--4--4--4--4--4--|---------------------------|----------7------------|
--------------------------|---------------------------|-----------------------|
--2--2--2--2--2--2--2--2--|---------------------------|-----------------------|
--------------------------|---------------------------|-----------------------|


   E   E   E    S  S  E   E  Q        E  E  E  E  E  E  E  E
-----------------------------------|--------------------------|
-----------------------------------|--------------------------|
---9--11--11S--14-14-14S--9--9\----|--------------------------|
-----------------------------------|--------7--7--5--5--4--4--|
--10---9---9S--12-12-12S--7--7\----|--------------------------|
-----------------------------------|--7--7--------------------|


  E  E  E  E  E  E   E  E     E  E  E  E  E  E  E  E
---------------------------|--------------------------|
---------------------------|--------------------------|
---------------------------|--------------------------|
---------------------------|--------7--7--5--5--4--4--|
--7--7--5--5--7--7s--9--5--|--L-----------------------|
---------------------------|--7--7--------------------|


  E  E  E  E  E  E   E  E     E  E  E  E  E  E  E  E
---------------------------|--------------------------|
---------------------------|--------------------------|
---------------------------|--------------------------|
---------------------------|--------7--7--5--5--4--4--|
--7--7--5--5--7--7s--9--5--|--L-----------------------|
---------------------------|--7--7--------------------|


  E  E  E  E  E  E   E  E     E  E  E  E  E  E  E  E
---------------------------|--------------------------|
---------------------------|--------------------------|
---------------------------|--------------------------|
---------------------------|--------7--7--5--5--4--4--|
--7--7--5--5--7--7s--9--5--|--L-----------------------|
---------------------------|--7--7--------------------|


  E  E  E  E  E  E   E  E
---------------------------|-----|-----|-----|-----|-----|-----|-----|-----|
---------------------------|-----|-----|-----|-----|-----|-----|-----|-----|
---------------------------|-----|-----|-----|-----|-----|-----|-----|-----|
---------------------------|-----|-----|-----|-----|-----|-----|-----|-----|
--7--7--5--5--7--7s--9--5--|-----|-----|-----|-----|-----|-----|-----|-----|
---------------------------|-----|-----|-----|-----|-----|-----|-----|-----|


  E  E  E  E  E  E  E  E      Q    Q    E  E  E  E     E  E  E  E  E  E  E  E
--------------------------|-------------------------|--------------------------|
-----7--7--7--7-----7-----|--10----7----7--7--7--7--|--L--7--7--7--7-----7-----|
-----7--7--7--7-----7-----|-------------7--9--7--7--|-----7--7--7--7-----7-----|
-----------------9-----9--|-------------------------|-----------------9-----9--|
--------------------------|-------------------------|--------------------------|
--------------------------|-------------------------|--------------------------|


  Q    Q     Q      Q        E  E  E  E  E  E  E  E      Q    Q    E  E  E  E
--------------------------|--------------------------|-------------------------|
--8----7-----8-----10-----|-----7--7--7--7-----7-----|--10----7----7--7--7--7--|
------------10b----12b----|-----7--7--7--7-----7-----|-------------7--9--7--7--|
--------------------------|-----------------9-----9--|-------------------------|
--------------------------|--------------------------|-------------------------|
--------------------------|--------------------------|-------------------------|


  E  E  E  E  E  E  E  E     Q    Q    Q    Q       Q    Q    Q    Q
--------------------------|----------------------|----------------------|
--L--7--7--7--7-----7-----|--8----7--------------|-------5---------7----|
-----7--7--7--7-----7-----|------------7----9----|-------6---------6----|
-----------------9-----9--|----------------------|-------8---------8----|
--------------------------|----------------------|----------------------|
--------------------------|----------------------|----------------------|


  Q    Q    Q    Q       Q    Q    Q    Q               Q    Q    Q    Q
----------------------|----------------------|-------|----------------------|
-------7---------8----|-------5---------7----|-------|-------5---------7----|
-------7---------7----|-------6---------6----|-------|-------6---------6----|
-------9---------9----|-------8---------8----|-------|-------8---------8----|
----------------------|----------------------|-------|----------------------|
----------------------|----------------------|-------|----------------------|


  Q    Q    Q    Q       Q    Q    Q    Q       Q    Q    E   E   Q
----------------------|----------------------|------------9--10--12----|
-------7---------8----|-------7---------7----|-------7-----------------|
-------7---------7----|-------7---------7----|-------7-----------------|
-------9---------9----|-------7---------7----|-------7-----------------|
----------------------|-------5---------5----|-------5-----------------|
----------------------|----------------------|-------------------------|


  Q    Q    Q    Q       Q    Q    Q    Q       Q    Q    Q    Q
----------------------|----------------------|----------------------|-------|
-------5---------7----|-------7---------8----|-------5---------7----|-------|
-------6---------6----|-------7---------7----|-------6---------6----|-------|
-------8---------8----|-------9---------9----|-------8---------8----|-------|
----------------------|----------------------|----------------------|-------|
----------------------|----------------------|----------------------|-------|


  Q    Q    Q    Q       Q    Q    Q    Q       Q    Q    Q    Q
----------------------|----------------------|----------------------|
-------5---------7----|-------7---------8----|-------7---------7----|
-------6---------6----|-------7---------7----|-------7---------7----|
-------8---------8----|-------9---------9----|-------7---------7----|
----------------------|----------------------|-------5---------5----|
----------------------|----------------------|----------------------|


  Q    Q    E   E   Q       Q    Q     Q    Q        Q    Q     Q    Q
------------9--10--12----|------------------------|------------------------|
-------7-----------------|-------7----------7-----|-------7----------3-----|
-------7-----------------|-------9b---------9b----|-------9b---------5b----|
-------7-----------------|------------------------|------------------------|
-------5-----------------|------------------------|------------------------|
-------------------------|------------------------|------------------------|


  Q    Q     Q    Q        Q    Q     Q    Q        Q    Q     Q    Q
------------------------|------------------------|------------------------|
-------7----------7-----|-------7----------3-----|-------7----------7-----|
-------9b---------9b----|-------9b---------5b----|-------9b---------9b----|
------------------------|------------------------|------------------------|
------------------------|------------------------|------------------------|
------------------------|------------------------|------------------------|


  Q    Q     Q    Q        Q    Q     Q    Q        Q    Q      E  E  Q
------------------------|------------------------|-------------------------|
-------7----------3-----|-------7----------7-----|-------7-----10--7-------|
-------9b---------5b----|-------9b---------9b----|-------9b-----------9----|
------------------------|------------------------|-------------------------|
------------------------|------------------------|-------------------------|
------------------------|------------------------|-------------------------|


  E  E  E  E  E  E  E  E     E  E  E  E  E  E  E  E
--------------------------|--------------------------|
--------------------------|--------------------------|
--4--4--4--4--4--4--4--4--|--6--6--6--6--6--6--6--6--|
--------------------------|--------------------------|
--2--2--2--2--2--2--2--2--|--4--4--4--4--4--4--4--4--|
--------------------------|--------------------------|


   E   E   E   E   E   E   E   E      E   S  S  E  S S E  E  Q
----------------------------------|-------------------------------|
----------------------------------|-------------------------------|
--12--12--12--12--12--12--12--12--|--12--11-11-11--7-7-7--9--9----|
----------------------------------|-------------------------------|
--10--10--10--10--10--10--10--10--|--10---9--9--9--5-5-5--7--7----|
----------------------------------|-------------------------------|


  E  E  E  E  E  E  E  E      E   E  E  E  E  E  Q       E  Q    Q    E  Q
--------------------------|---------------------------|-----------------------|
--------------------------|--10--10--8--8--7--7--5----|--5--7---------5--7----|
--4--4--4--4--4--4--4--4--|---------------------------|----------7------------|
--------------------------|---------------------------|-----------------------|
--2--2--2--2--2--2--2--2--|---------------------------|-----------------------|
--------------------------|---------------------------|-----------------------|


   E   E   E    S  S  E   E  Q
-----------------------------------|-------|-------|-------|-------|
-----------------------------------|-------|-------|-------|-------|
---9--11--11S--14-14-14S--9--9\----|-------|-------|-------|-------|
-----------------------------------|-------|-------|-------|-------|
--10---9---9S--12-12-12S--7--7\----|-------|-------|-------|-------|
-----------------------------------|-------|-------|-------|-------|


     NH     NH     NH     NH        NH     NH      NH     NH
     Q      Q      Q      Q         Q      Q       Q      Q
-------------------------------|-------------------------------|
--<>12------------------<>7----|-------------------------------|
----------<>7----<>5-----------|---------<>7----<>12----<>7----|
-------------------------------|--<>7--------------------------|
-------------------------------|-------------------------------|
-------------------------------|-------------------------------|


     NH     NH     NH     NH        NH     NH      NH     NH
     Q      Q      Q      Q         Q      Q       Q      Q
-------------------------------|-------------------------------|
--<>12------------------<>7----|-------------------------------|
----------<>7----<>5-----------|---------<>7----<>12----<>7----|
-------------------------------|--<>7--------------------------|
-------------------------------|-------------------------------|
-------------------------------|-------------------------------|


     NH     NH     NH     NH        NH     NH      NH     NH
     Q      Q      Q      Q         Q      Q       Q      Q
-------------------------------|-------------------------------|
--<>12------------------<>7----|-------------------------------|
----------<>7----<>5-----------|---------<>7----<>12----<>7----|
-------------------------------|--<>7--------------------------|
-------------------------------|-------------------------------|
-------------------------------|-------------------------------|


     NH     NH     NH     NH        NH     NH      NH     NH
     Q      Q      Q      Q         Q      Q       Q      Q
-------------------------------|-------------------------------|
--<>12------------------<>7----|-------------------------------|
----------<>7----<>5-----------|---------<>7----<>12----<>7----|
-------------------------------|--<>7--------------------------|
-------------------------------|-------------------------------|
-------------------------------|-------------------------------|


     NH     NH     NH     NH        NH     NH      NH     NH
     Q      Q      Q      Q         Q      Q       Q      Q
-------------------------------|-------------------------------|
--<>12------------------<>7----|-------------------------------|
----------<>7----<>5-----------|---------<>7----<>12----<>7----|
-------------------------------|--<>7--------------------------|
-------------------------------|-------------------------------|
-------------------------------|-------------------------------|


     NH     NH     NH     NH        NH     NH      NH     NH
     Q      Q      Q      Q         Q      Q       Q      Q
-------------------------------|-------------------------------|
--<>12------------------<>7----|-------------------------------|
----------<>7----<>5-----------|---------<>7----<>12----<>7----|
-------------------------------|--<>7--------------------------|
-------------------------------|-------------------------------|
-------------------------------|-------------------------------|


    NH     NH     NH     NH        NH     NH     NH     NH
    Q      Q      Q      Q         Q      Q      Q      Q
------------------------------|------------------------------|
--<>7------------------<>7----|----------------<>7-----------|
---------<>7----<>5-----------|--<>7----<>5-----------<>7----|
------------------------------|------------------------------|
------------------------------|------------------------------|
------------------------------|------------------------------|


    NH     NH     NH     NH        NH     NH     NH     NH
    Q      Q      Q      Q         Q      Q      Q      Q
------------------------------|------------------------------|
---------<>7------------------|--<>7------------------<>7----|
--<>5-----------<>7----<>5----|---------<>7----<>5-----------|
------------------------------|------------------------------|
------------------------------|------------------------------|
------------------------------|------------------------------|


    NH     NH     NH     NH        NH     NH     NH     NH
    Q      Q      Q      Q         Q      Q      Q      Q
------------------------------|------------------------------|
--<>7------------------<>7----|----------------<>7-----------|
---------<>7----<>5-----------|--<>7----<>5-----------<>7----|
------------------------------|------------------------------|
------------------------------|------------------------------|
------------------------------|------------------------------|


    NH     NH     NH     NH        NH     NH     NH     NH
    Q      Q      Q      Q         Q      Q      Q      Q
------------------------------|------------------------------|
---------<>7------------------|--<>7------------------<>7----|
--<>5-----------<>7----<>5----|---------<>7----<>5-----------|
------------------------------|------------------------------|
------------------------------|------------------------------|
------------------------------|------------------------------|


    NH     NH     NH     NH        NH     NH     NH     NH
    Q      Q      Q      Q         Q      Q      Q      Q
------------------------------|------------------------------|
--<>7------------------<>7----|----------------<>7-----------|
---------<>7----<>5-----------|--<>7----<>5-----------<>7----|
------------------------------|------------------------------|
------------------------------|------------------------------|
------------------------------|------------------------------|


    NH     NH     NH     NH        NH     NH     NH     NH
    Q      Q      Q      Q         Q      Q      Q      Q
------------------------------|------------------------------|
---------<>7------------------|--<>7------------------<>7----|
--<>5-----------<>7----<>5----|---------<>7----<>5-----------|
------------------------------|------------------------------|
------------------------------|------------------------------|
------------------------------|------------------------------|


    NH     NH     NH     NH        NH     NH     NH     NH
    Q      Q      Q      Q         Q      Q      Q      Q
------------------------------|------------------------------|
--<>7------------------<>7----|----------------<>7-----------|
---------<>7----<>5-----------|--<>7----<>5-----------<>5----|
------------------------------|------------------------------|
------------------------------|------------------------------|
------------------------------|------------------------------|


    NH     NH     NH     NH        NH     NH     NH     NH
    Q      Q      Q      Q         Q      Q      Q      Q
------------------------------|------------------------------|
--<>7------------------<>7----|--<>7------------------<>7----|
---------<>7----<>5-----------|---------<>7----<>5-----------|
------------------------------|------------------------------|
------------------------------|------------------------------|
------------------------------|------------------------------|
Gordon

G||-------|-------|-------|-------|-------|-------|-----|-----|
D||-------|-------|-------|-------|-------|-------|-----|-----|
A||-------|-------|-------|-------|-------|-------|-----|-----|
E||-------|-------|-------|-------|-------|-------|-----|-----|


  E  E  E  E  E  Q    E     E  E  Q    H           E  E  E  E  E  Q    E
-------------------------|----------------------|-------------------------|
-------------------------|----------------------|-------------------------|
-------------------------|----------------------|-----5--5--5--5-------7--|
-----7--7--7--7-------7--|--7--7--7-------------|-------------------------|


  E  E  Q    H           E  E  E  E  E  Q    E     E  E  Q    H
----------------------|-------------------------|----------------------|
----------------------|-------
4 comments total. Showing first comments.
0 reply
CrowLord wrote on August 1 2008, 12:00 pm

was this made on Guitar Pro, or Power Tab, coz that version should be uploaded as well

looks great, only just skimmed over it, but i think i would use different fingerings on Russell's intro to keep it in the same position

0 reply
raven_gekko wrote on August 23 2008, 01:44 pm

This is a really good tab, but the problem is it's a little messy. It'd be nice if you could update it, but have it be more precise, because thigns are falling over a little on themselves.

But, that doesn't take away from the fact that this is an excellent tab, so 5 stars.

0 reply
kylepianoman wrote on October 18 2008, 01:06 pm

this it teh best tab out there.
the prechorus chords are almost spot on, but they barre chord (fix that if you need)

finally someone tabbed the prechorus correctly though!
5*

I want to post or [tab]
guest
You may want to rate the tab now too:
select rating
Please do not post tabs as comments. Select "correction" instead!