Oops, an error
Loading. Please wait.

I Still Remember Acoustic Tab

18,029 views 21 this week
8 commentsread comments
1 2 3 4 5
excellent!
x 11
add to favorites launch autoscroll
font size
0
reset
Autoscroll
+/-
esc
set tempo
stop
Contributor
WARNING: You are trying to view
                                    content from Ultimate-Guitar.com
                                    in an unauthorized application,
                                    which is prohibited.

                                    Please use an official Ultimate
                                    Guitar Tabs application for iPhone,
                                    iPad or Android to access legitimate
                                    chords, guitar, bass, and drum tabs
                                    from Ultimate-Guitar.com database.

                                    Type "ultimate guitar tabs" in Apple
                                    App Store's or Android Market's
                                    search to find the application.
----------------------------------------------------------------------------
               I Still Remember - Bloc Party
----------------------------------------------------------------------------


Tabbed by: MiKi
Email: miki.ross@gmail.com

I managed to tabs this awesome song watching their acoustic set from Spinner.com and i 
it\'s almost perfect, I\'d say this is what Russell actually plays. So enjoy it!


Chords:

        EADGBe
D       xx0232
Dsus2   xx0230
G6      320030 ó  x55430
Asus4   x02230
Dsus2/B x20230
B       x24432
G       355433
D5      x577xx
E5      x799xx
F#5     x91111xx
Em      022000
F#7     x44320


Tuning: Standard

Intro

e|------5-------------5----------0-2-----------0-2--------------------------|
B|---------8-7----------8-7------3---3~--------3---3~-----------------------|
G|----7--------7----6-------7----2----- 2--2----2------2-------x2-----------|
D|--0-------------0--------------0------0------0----------------------------|
A|-------------------------------0-------------0----------------------------|
E|-------------------------------3-------------3----------------------------|


D       G6   Asus4  Dsus2/B   Dsus2
I.....................
D               G6  Asus4 Dsus2/B  Dsus2
I still remember
D                            G6  Asus4  Dsus2/B  Dsus2
How you looked that afternoon
D                 G6  Asus4  Dsus2/B  Dsus2
There was only you
D      G6  Asus4   Dsus2/B    Dsus2      D
You said \"it\'s just like a full moon\"
G6         Asus4     Dsus2/B   Dsus2
Blood beats faster in our veins
D     G6  Asus4  Dsus2/B   Dsus2     D
We left our trousers by the canal
G6         Asus4    Dsus2/B    Dsus2
And our fingers, they almost touched


Chorus
Dsus2                    B   G   D5
You should have asked me for it
E5                 F#5    B   G
I would have been brave
D5       E5        F#5       B   G
You should have asked me for it
D5   E5        F#5   B   G   D5
How could I say no?

E5  F#5  B      G         D5
And our love could have soared
E5  F#5  B     G      D5
Over playgrounds and rooftops
E5 F#5    B         G         D5
Every park bench screams your name
Em      F#7    G6.......
I kept your tie

I\'d have gone wherever you wanted

e|--------------------------------------------------------------------------|
B|--0--2---3--5---2--3--5---7-----------------------------------------------|
G|--2--2---2--4---2--2--4---6-----------------------------------------------|
D|--2--0---0--0---0--0--0---0-----------------------------------------------|
A|--------------------------------------------------------------------------|
E|--------------------------------------------------------------------------|

Intro
(I still remember)


The rest is exactly the same, just get the correct timing for the voice and you\'ll get it.


And on that teachers\' training day
We wrote our names on every train
Laughed at the people off to work
So monochrome and so lukewarm

And I can see our days are becoming night
I could feel your heartbeat across the grass
We should have run, I would go with you anywhere
I should have kissed you by the water

You should have asked me for it…

And our love could have soared…

I\'d have let you if you asked me

I still remember
comments
print report bad tab
8 comments total. Showing first comments.
0 reply
What_Is_Soul? wrote on July 26 2007, 08:41 am

nice effor, thanks!

0 reply
gavindavis wrote on July 26 2007, 10:55 am

as stated befor ethe only bit wrong is this bit
I\'d have gone wherever you wanted

e|-------------------------------------------------------------
B|--0--2---3--5---2--3--5---7----------------------------
G|--2--2---2--4---2--2--4---6--------------
D|--2--0---0--0---0--0--0---0-------------
A|-------------------------------------------
E|----------------------------------------------

sounds wrong everything else great tab 5 stars

0 reply
Coldtrain wrote on July 26 2007, 12:11 pm

try without playing the 4th string, it may sound better...

I want to post or [tab]
guest
You may want to rate the tab now too:
select rating
Please do not post tabs as comments. Select "correction" instead!