Oops, an error
Loading. Please wait.

So Here We Are Tab

ver4
ver4

Whole song

Interactive

More versions @911Tabs.com
17,097 views 27 this week
3 commentsread comments
1 2 3 4 5
accurate
x 10
Autoscroll
+/-
esc
set tempo
stop
Contributor
Hey! There's an official Ultimate Guitar app which is ideal
for learning songs when you're away from computer. Get the app
WARNING: You are trying to view
                                    content from Ultimate-Guitar.com
                                    in an unauthorized application,
                                    which is prohibited.

                                    Please use an official Ultimate
                                    Guitar Tabs application for iPhone,
                                    iPad or Android to access legitimate
                                    chords, guitar, bass, and drum tabs
                                    from Ultimate-Guitar.com database.

                                    Type "ultimate guitar tabs" in Apple
                                    App Store's or Android Market's
                                    search to find the application.
                                 
Artist: Bloc Party
Song: So Here We Are
Tabber: Gavin Davis (RussellLissackLover www.blocparty.net)


Kele

      Q     Q     Q     Q        Q     Q     Q     Q     
E||--------------------------|--------------------------|
B||--------------12----------|--------------12----------|
G||--------14----------14----|--------14----------14----|
D||--------------------------|--------------------------|
A||--12----------------------|--12----------------------|
E||--------------------------|--------------------------|


   Q     Q     Q     Q        Q     Q     Q     Q     
--------------------------|--------------------------|
--------------12----------|--------------12----------|
--------14----------14----|--------14----------14----|
--------------------------|--------------------------|
--12----------------------|--12----------------------|
--------------------------|--------------------------|


   Q     Q     Q     Q        Q     Q     Q     Q     
--------------------------|--------------------------|
--------------12----------|--------------12----------|
--------14----------14----|--------14----------14----|
--------------------------|--------------------------|
--12----------------------|--12----------------------|
--------------------------|--------------------------|


   Q     Q     Q     Q        Q     Q     Q     Q     
--------------------------|--------------------------|
--------------12----------|--------------12----------|
--------14----------14----|--------14----------14----|
--------------------------|--------------------------|
--12----------------------|--12----------------------|
--------------------------|--------------------------|


   Q     Q     Q     Q        Q     Q     Q     Q     
--------------------------|--------------------------|
--------------12----------|--------------12----------|
--------14----------14----|--------14----------14----|
--------------------------|--------------------------|
--12----------------------|--12----------------------|
--------------------------|--------------------------|


   Q     Q     Q     Q        Q     Q     Q     Q     
--------------------------|--------------------------|
--------------12----------|--------------12----------|
--------14----------14----|--------14----------14----|
--------------------------|--------------------------|
--12----------------------|--12----------------------|
--------------------------|--------------------------|


   Q     Q     Q     Q        Q     Q     Q     Q     
--------------------------|--------------------------|
--------------12----------|--------------12----------|
--------14----------14----|--------14----------14----|
--------------------------|--------------------------|
--------------------------|--------------------------|
--14----------------------|--14----------------------|


   Q     Q     Q     Q        Q     Q     Q     Q     
--------------------------|--------------------------|
--------------12----------|--------------12----------|
--------14----------14----|--------14----------14----|
--------------------------|--------------------------|
--------------------------|--------------------------|
--14----------------------|--14----------------------|


   Q     Q     Q     Q        Q     Q     Q     Q     
--------------------------|--------------------------|
--------------12----------|--------------12----------|
--------14----------14----|--------14----------14----|
--------------------------|--------------------------|
--12----------------------|--12----------------------|
--------------------------|--------------------------|


   Q     Q     Q     Q        Q     Q     Q     Q     
--------------------------|--------------------------|
--------------12----------|--------------12----------|
--------14----------14----|--------14----------14----|
--------------------------|--------------------------|
--12----------------------|--12----------------------|
--------------------------|--------------------------|


   Q     Q     Q     Q        Q     Q     Q     Q     
--------------------------|--------------------------|
--------------12----------|--------------12----------|
--------14----------14----|--------14----------14----|
--------------------------|--------------------------|
--------------------------|--------------------------|
--14----------------------|--14----------------------|


   Q     Q     Q     Q        Q     Q     Q     Q     
--------------------------|--------------------------|
--------------12----------|--------------12----------|
--------14----------14----|--------14----------14----|
--------------------------|--------------------------|
--------------------------|--------------------------|
--14----------------------|--14----------------------|


   Q     Q     Q     Q        Q     Q     Q     Q     
--------------------------|--------------------------|
--------------12----------|--------------12----------|
--------14----------14----|--------14----------14----|
--------------------------|--------------------------|
--12----------------------|--12----------------------|
--------------------------|--------------------------|


   Q     Q     Q     Q        Q     Q     Q     Q     
--------------------------|--------------------------|
--------------12----------|--------------12----------|
--------14----------14----|--------14----------14----|
--------------------------|--------------------------|
--12----------------------|--12----------------------|
--------------------------|--------------------------|


   Q     Q     Q     Q        Q     Q     Q     Q     
--------------------------|--------------------------|
--------------12----------|--------------12----------|
--------14----------14----|--------14----------14----|
--------------------------|--------------------------|
--------------------------|--------------------------|
--14----------------------|--14----------------------|


   Q     Q     Q     Q        Q     Q     Q     Q     
--------------------------|--------------------------|
--------------12----------|--------------12----------|
--------14----------14----|--------14----------14----|
--------------------------|--------------------------|
--------------------------|--------------------------|
--14----------------------|--14----------------------|


   Q     Q     Q     Q        Q     Q     Q     Q     
--------------------------|--------------------------|
--------------12----------|--------------12----------|
--------14----------14----|--------14----------14----|
--------------------------|--------------------------|
--12----------------------|--12----------------------|
--------------------------|--------------------------|


   Q     Q     Q     Q        Q     Q     Q     Q     
--------------------------|--------------------------|
--------------12----------|--------------12----------|
--------14----------14----|--------14----------14----|
--------------------------|--------------------------|
--12----------------------|--12----------------------|
--------------------------|--------------------------|


   Q     Q     Q     Q        Q     Q     Q     Q     
--------------------------|--------------------------|
--------------12----------|--------------12----------|
--------14----------14----|--------14----------14----|
--------------------------|--------------------------|
--------------------------|--------------------------|
--14----------------------|--14----------------------|


   Q     Q     Q     Q        Q     Q     Q     Q     
--------------------------|--------------------------|
--------------12----------|--------------12----------|
--------14----------14----|--------14----------14----|
--------------------------|--------------------------|
--------------------------|--------------------------|
--14----------------------|--14----------------------|


   Q     Q     Q     Q        Q     Q     Q     Q     
--------------------------|--------------------------|
--------------12----------|--------------12----------|
--------14----------14----|--------14----------14----|
--------------------------|--------------------------|
--12----------------------|--12----------------------|
--------------------------|--------------------------|


   Q     Q     Q     Q        Q     Q     Q     Q     
--------------------------|--------------------------|
--------------12----------|--------------12----------|
--------14----------14----|--------14----------14----|
--------------------------|--------------------------|
--12----------------------|--12----------------------|
--------------------------|--------------------------|


   Q     Q     Q     Q        Q     Q     Q     Q     
--------------------------|--------------------------|
--------------12----------|--------------12----------|
--------14----------14----|--------14----------14----|
--------------------------|--------------------------|
--------------------------|--------------------------|
--14----------------------|--14----------------------|


   Q     Q     Q     Q        Q     Q     Q     Q     
--------------------------|--------------------------|
--------------12----------|--------------12----------|
--------14----------14----|--------14----------14----|
--------------------------|--------------------------|
--------------------------|--------------------------|
--14----------------------|--14----------------------|


   Q     Q     Q     Q        Q     Q     Q     Q     
--------------------------|--------------------------|
--------------12----------|--------------12----------|
--------14----------14----|--------14----------14----|
--------------------------|--------------------------|
--12----------------------|--12----------------------|
--------------------------|--------------------------|


   Q     Q     Q     Q        Q     Q     Q     Q     
--------------------------|--------------------------|
--------------12----------|--------------12----------|
--------14----------14----|--------14----------14----|
--------------------------|--------------------------|
--12----------------------|--12----------------------|
--------------------------|--------------------------|


   Q     Q     Q     Q        Q     Q     Q     Q     
--------------------------|--------------------------|
--------------12----------|--------------12----------|
--------14----------14----|--------14----------14----|
--------------------------|--------------------------|
--------------------------|--------------------------|
--14----------------------|--14----------------------|


   Q     Q     Q     Q        Q     Q     Q     Q     
--------------------------|--------------------------|
--------------12----------|--------------12----------|
--------14----------14----|--------14----------14----|
--------------------------|--------------------------|
--------------------------|--------------------------|
--14----------------------|--14----------------------|


   Q     Q     Q     Q        Q     Q     Q     Q     
--------------------------|--------------------------|
--------------12----------|--------------12----------|
--------14----------14----|--------14----------14----|
--------------------------|--------------------------|
--12----------------------|--12----------------------|
--------------------------|--------------------------|


   Q     Q     Q     Q        Q     Q     Q     Q     
--------------------------|--------------------------|
--------------12----------|--------------12----------|
--------14----------14----|--------14----------14----|
--------------------------|--------------------------|
--12----------------------|--12----------------------|
--------------------------|--------------------------|


   Q     Q     Q     Q        Q     Q     Q     Q     
--------------------------|--------------------------|
--------------12----------|--------------12----------|
--------14----------14----|--------14----------14----|
--------------------------|--------------------------|
--------------------------|--------------------------|
--14----------------------|--14----------------------|


   Q     Q     Q     Q        Q     Q     Q     Q     
--------------------------|--------------------------|
--------------12----------|--------------12----------|
--------14----------14----|--------14----------14----|
--------------------------|--------------------------|
--------------------------|--------------------------|
--14----------------------|--14----------------------|


   Q     Q     Q     Q        Q     Q     Q     Q     
--------------------------|--------------------------|
--------------12----------|--------------12----------|
--------14----------14----|--------14----------14----|
--------------------------|--------------------------|
--12----------------------|--12----------------------|
--------------------------|--------------------------|


   Q     Q     Q     Q        Q     Q     Q     Q     
--------------------------|--------------------------|
--------------12----------|--------------12----------|
--------14----------14----|--------14----------14----|
--------------------------|--------------------------|
--12----------------------|--12----------------------|
--------------------------|--------------------------|


   Q     Q     Q     Q        Q     Q     Q     Q     
--------------------------|--------------------------|
--------------12----------|--------------12----------|
--------14----------14----|--------14----------14----|
--------------------------|--------------------------|
--------------------------|--------------------------|
--14----------------------|--14----------------------|


   Q     Q     Q     Q        Q     Q     Q     Q     
--------------------------|--------------------------|
--------------12----------|--------------12----------|
--------14----------14----|--------14----------14----|
--------------------------|--------------------------|
--------------------------|--------------------------|
--14----------------------|--14----------------------|


   Q     Q     Q     Q        Q     Q     Q     Q     
--------------------------|--------------------------|
--------------12----------|--------------12----------|
--------14----------14----|--------14----------14----|
--------------------------|--------------------------|
--12----------------------|--12----------------------|
--------------------------|--------------------------|


   Q     Q     Q     Q        Q     Q     Q     Q     
--------------------------|--------------------------|
--------------12----------|--------------12----------|
--------14----------14----|--------14----------14----|
--------------------------|--------------------------|
--12----------------------|--12----------------------|
--------------------------|--------------------------|


   Q     Q     Q     Q        Q     Q     Q     Q     
--------------------------|--------------------------|
--------------12----------|--------------12----------|
--------14----------14----|--------14----------14----|
--------------------------|--------------------------|
--------------------------|--------------------------|
--14----------------------|--14----------------------|


   Q     Q     Q     Q        Q     Q     Q     Q     
--------------------------|--------------------------|
--------------12----------|--------------12----------|
--------14----------14----|--------14----------14----|
--------------------------|--------------------------|
--------------------------|--------------------------|
--14----------------------|--14----------------------|


   Q     Q     Q     Q        Q     Q     Q     Q     
--------------------------|--------------------------|
--------------12----------|--------------12----------|
--------14----------14----|--------14----------14----|
--------------------------|--------------------------|
--12----------------------|--12----------------------|
--------------------------|--------------------------|


   Q     Q     Q     Q        Q     Q     Q     Q     
--------------------------|--------------------------|
--------------12----------|--------------12----------|
--------14----------14----|--------14----------14----|
--------------------------|--------------------------|
--12----------------------|--12----------------------|
--------------------------|--------------------------|


   Q     Q     Q     Q        Q     Q     Q     Q     
--------------------------|--------------------------|
--------------12----------|--------------12----------|
--------14----------14----|--------14----------14----|
--------------------------|--------------------------|
--------------------------|--------------------------|
--14----------------------|--14----------------------|


   Q     Q     Q     Q        Q     Q     Q     Q     
--------------------------|--------------------------|
--------------12----------|--------------12----------|
--------14----------14----|--------14----------14----|
--------------------------|--------------------------|
--------------------------|--------------------------|
--14----------------------|--14----------------------|


   Q     Q     Q     Q        Q     Q     Q     Q     
--------------------------|--------------------------|
--------------12----------|--------------12----------|
--------14----------14----|--------14----------14----|
--------------------------|--------------------------|
--12----------------------|--12----------------------|
--------------------------|--------------------------|


   Q     Q     Q     Q        Q     Q     Q     Q     
--------------------------|--------------------------|
--------------12----------|--------------12----------|
--------14----------14----|--------14----------14----|
--------------------------|--------------------------|
--12----------------------|--12----------------------|
--------------------------|--------------------------|


   Q     Q     Q     Q        Q     Q     Q     Q     
--------------------------|--------------------------|
--------------12----------|--------------12----------|
--------14----------14----|--------14----------14----|
--------------------------|--------------------------|
--------------------------|--------------------------|
--14----------------------|--14----------------------|


   Q     Q     Q     Q        Q     Q     Q     Q     
--------------------------|--------------------------|
--------------12----------|--------------12----------|
--------14----------14----|--------14----------14----|
--------------------------|--------------------------|
--------------------------|--------------------------|
--14----------------------|--14----------------------|


   Q     Q     Q     Q        Q     Q     Q     Q     
--------------------------|--------------------------|
--------------12----------|--------------12----------|
--------14----------14----|--------14----------14----|
--------------------------|--------------------------|
--12----------------------|--12----------------------|
--------------------------|--------------------------|


   Q     Q     Q     Q        Q     Q     Q     Q     
--------------------------|--------------------------|
--------------12----------|--------------12----------|
--------14----------14----|--------14----------14----|
--------------------------|--------------------------|
--12----------------------|--12----------------------|
--------------------------|--------------------------|


   Q     Q     Q     Q        Q     Q     Q     Q     
--------------------------|--------------------------|
--------------12----------|--------------12----------|
--------14----------14----|--------14----------14----|
--------------------------|--------------------------|
--12----------------------|--12----------------------|
--------------------------|--------------------------|


   Q     Q     Q     Q        Q     Q     Q     Q     
--------------------------|--------------------------|
--------------12----------|--------------12----------|
--------14----------14----|--------14----------14----|
--------------------------|--------------------------|
--12----------------------|--12----------------------|
--------------------------|--------------------------|


   Q     Q     Q     Q        Q     Q     Q     Q     
--------------------------|--------------------------|
--------------12----------|--------------12----------|
--------14----------14----|--------14----------14----|
--------------------------|--------------------------|
--12----------------------|--12----------------------|
--------------------------|--------------------------|


   Q     Q     Q     Q        Q     Q     Q     Q     
--------------------------|--------------------------|
--------------12----------|--------------12----------|
--------14----------14----|--------14----------14----|
--------------------------|--------------------------|
--12----------------------|--12----------------------|
--------------------------|--------------------------|


   Q     Q     Q     Q        Q     Q     Q     Q     
--------------------------|--------------------------|
--------------12----------|--------------12----------|
--------14----------14----|--------14----------14----|
--------------------------|--------------------------|
--------------------------|--------------------------|
--14----------------------|--14----------------------|


   Q     Q     Q     Q        Q     Q     Q     Q     
--------------------------|--------------------------|
--------------12----------|--------------12----------|
--------14----------14----|--------14----------14----|
--------------------------|--------------------------|
--------------------------|--------------------------|
--14----------------------|--14----------------------|


   Q     Q     Q     Q        Q     Q     Q     Q     
--------------------------|--------------------------|
--------------12----------|--------------12----------|
--------14----------14----|--------14----------14----|
--------------------------|--------------------------|
--12----------------------|--12----------------------|
--------------------------|--------------------------|


   Q     Q     Q     Q        Q     Q     Q     Q     
--------------------------|--------------------------|
--------------12----------|--------------12----------|
--------14----------14----|--------14----------14----|
--------------------------|--------------------------|
--12----------------------|--12----------------------|
--------------------------|--------------------------|


   Q     Q     Q     Q        Q     Q     Q     Q     
--------------------------|--------------------------|
--------------12----------|--------------12----------|
--------14----------14----|--------14----------14----|
--------------------------|--------------------------|
--------------------------|--------------------------|
--14----------------------|--14----------------------|


   Q     Q     Q     Q        Q     Q     Q     Q     
--------------------------|--------------------------|
--------------12----------|--------------12----------|
--------14----------14----|--------14----------14----|
--------------------------|--------------------------|
--------------------------|--------------------------|
--14----------------------|--14----------------------|


   Q     Q     Q     Q        Q     Q     Q     Q     
--------------------------|--------------------------|
--------------12----------|--------------12----------|
--------14----------14----|--------14----------14----|
--------------------------|--------------------------|
--12----------------------|--12----------------------|
--------------------------|--------------------------|


   Q     Q     Q     Q        Q     Q     Q     Q     
--------------------------|--------------------------|
--------------12----------|--------------12----------|
--------14----------14----|--------14----------14----|
--------------------------|--------------------------|
--12----------------------|--12----------------------|
--------------------------|--------------------------|


   Q     Q     Q     Q        Q     Q     Q     Q     
--------------------------|--------------------------|
--------------12----------|--------------12----------|
--------14----------14----|--------14----------14----|
--------------------------|--------------------------|
--------------------------|--------------------------|
--14----------------------|--14----------------------|


   Q     Q     Q     Q        Q     Q     Q     Q     
--------------------------|--------------------------|
--------------12----------|--------------12----------|
--------14----------14----|--------14----------14----|
--------------------------|--------------------------|
--------------------------|--------------------------|
--14----------------------|--14----------------------|


   Q     Q     Q     Q        Q     Q     Q     Q     
--------------------------|--------------------------|
--------------12----------|--------------12----------|
--------14----------14----|--------14----------14----|
--------------------------|--------------------------|
--12----------------------|--12----------------------|
--------------------------|--------------------------|


   Q     Q     Q     Q        Q     Q     Q     Q     
--------------------------|--------------------------|
--------------12----------|--------------12----------|
--------14----------14----|--------14----------14----|
--------------------------|--------------------------|
--12----------------------|--12----------------------|
--------------------------|--------------------------|


   Q     Q     Q     Q        Q     Q     Q     Q     
--------------------------|--------------------------|
--------------12----------|--------------12----------|
--------14----------14----|--------14----------14----|
--------------------------|--------------------------|
--------------------------|--------------------------|
--14----------------------|--14----------------------|


   Q     Q     Q     Q        Q     Q     Q     Q     
--------------------------|--------------------------|
--------------12----------|--------------12----------|
--------14----------14----|--------14----------14----|
--------------------------|--------------------------|
--------------------------|--------------------------|
--14----------------------|--14----------------------|


   Q     Q     Q     Q        Q     Q     Q     Q     
--------------------------|--------------------------|
--------------12----------|--------------12----------|
--------14----------14----|--------14----------14----|
--------------------------|--------------------------|
--12----------------------|--12----------------------|
--------------------------|--------------------------|


   Q     Q     Q     Q        Q     Q     Q     Q     
--------------------------|--------------------------|
--------------12----------|--------------12----------|
--------14----------14----|--------14----------14----|
--------------------------|--------------------------|
--12----------------------|--12----------------------|
--------------------------|--------------------------|


   Q     Q     Q     Q        Q     Q     Q     Q     
--------------------------|--------------------------|
--------------12----------|--------------12----------|
--------14----------14----|--------14----------14----|
--------------------------|--------------------------|
--------------------------|--------------------------|
--14----------------------|--14----------------------|


   
    
 Q     Q     Q     Q        Q     Q     Q     Q                             
--------------------------|--------------------------|
--------------12----------|--------------12----------|
--------14----------14----|--------14----------14----|
--------------------------|--------------------------|
--------------------------|--------------------------|
--14----------------------|--14----------------------|

Russell



      E   E   E   E   E   E   E   E      E   E   E   E   E   E   E   E   
E||----------------------------------|----------------------------------|
B||--12----------12------------------|--12----------12------------------|
G||------14----------14------14------|------14----------14------14------|
D||----------14----------14------14--|----------14----------14------14--|
A||----------------------------------|----------------------------------|
E||----------------------------------|----------------------------------|


   E   E   E   E   E   E   E   E      E   E   E   E   E   E   E   E   
----------------------------------|----------------------------------|
--12----------12------------------|--12----------12------------------|
------14----------14------14------|------14----------14------14------|
----------14----------14------14--|----------14----------14------14--|
----------------------------------|----------------------------------|
----------------------------------|----------------------------------|


   E   E   E   E   E   E   E   E      E   E   E   E   E   E   E   E   
----------------------------------|----------------------------------|
--12----------12------------------|--12----------12------------------|
------14----------14------14------|------14----------14------14------|
----------14----------14------14--|----------14----------14------14--|
----------------------------------|----------------------------------|
----------------------------------|----------------------------------|


   E   E   E   E   E   E   E   E      E   E   E   E   E   E   E   E   
----------------------------------|----------------------------------|
--12----------12------------------|--12----------12------------------|
------14----------14------14------|------14----------14------14------|
----------14----------14------14--|----------14----------14------14--|
----------------------------------|----------------------------------|
----------------------------------|----------------------------------|


   E   E   E   E   E   E   E   E      E   E   E   E   E   E   E   E   
----------------------------------|----------------------------------|
--12----------12------------------|--12----------12------------------|
------14----------14------14------|------14----------14------14------|
----------14----------14------14--|----------14----------14------14--|
----------------------------------|----------------------------------|
----------------------------------|----------------------------------|


   E   E   E   E   E   E   E   E      E   E   E   E   E   E   E   E   
----------------------------------|----------------------------------|
--12----------12------------------|--12----------12------------------|
------14----------14------14------|------14----------14------14------|
----------14----------14------14--|----------14----------14------14--|
----------------------------------|----------------------------------|
----------------------------------|----------------------------------|


   E   E   E   E   E   E   E   E      E   E   E   E   E   E   E   E   
----------------------------------|----------------------------------|
--14----------14------------------|--14----------14------------------|
------14----------14------14------|------14----------14------14------|
----------12----------12------12--|----------12----------12------12--|
----------------------------------|----------------------------------|
----------------------------------|----------------------------------|


   E   E   E   E   E   E   E   E      E   E   E   E   E   E   E   E   
----------------------------------|----------------------------------|
--14----------14------------------|--14----------14------------------|
------14----------14------14------|------14----------14------14------|
----------12----------12------12--|----------12----------12------12--|
----------------------------------|----------------------------------|
----------------------------------|----------------------------------|


   E   E   E   E   E   E   E   E      E   E   E   E   E   E   E   E   
----------------------------------|----------------------------------|
--12----------12------------------|--12----------12------------------|
------14----------14------14------|------14----------14------14------|
----------14----------14------14--|----------14----------14------14--|
----------------------------------|----------------------------------|
----------------------------------|----------------------------------|


   E   E   E   E   E   E   E   E      E   E   E   E   E   E   E   E   
----------------------------------|----------------------------------|
--12----------12------------------|--12----------12------------------|
------14----------14------14------|------14----------14------14------|
----------14----------14------14--|----------14----------14------14--|
----------------------------------|----------------------------------|
----------------------------------|----------------------------------|


   E   E   E   E   E   E   E   E      E   E   E   E   E   E   E   E   
----------------------------------|----------------------------------|
--14----------14------------------|--14----------14------------------|
------14----------14------14------|------14----------14------14------|
----------12----------12------12--|----------12----------12------12--|
----------------------------------|----------------------------------|
----------------------------------|----------------------------------|


   E   E   E   E   E   E   E   E      E   E   E   E   E   E   E   E   
----------------------------------|----------------------------------|
--14----------14------------------|--14----------14------------------|
------14----------14------14------|------14----------14------14------|
----------12----------12------12--|----------12----------12------12--|
----------------------------------|----------------------------------|
----------------------------------|----------------------------------|


   E   E   E   E   E   E   E   E      E   E   E   E   E   E   E   E   
----------------------------------|----------------------------------|
--12----------12------------------|--12----------12------------------|
------14----------14------14------|------14----------14------14------|
----------14----------14------14--|----------14----------14------14--|
----------------------------------|----------------------------------|
----------------------------------|----------------------------------|


   E   E   E   E   E   E   E   E      E   E   E   E   E   E   E   E   
----------------------------------|----------------------------------|
--12----------12------------------|--12----------12------------------|
------14----------14------14------|------14----------14------14------|
----------14----------14------14--|----------14----------14------14--|
----------------------------------|----------------------------------|
----------------------------------|----------------------------------|


   E   E   E   E   E   E   E   E      E   E   E   E   E   E   E   E   
----------------------------------|----------------------------------|
--14----------14------------------|--14----------14------------------|
------14----------14------14------|------14----------14------14------|
----------12----------12------12--|----------12----------12------12--|
----------------------------------|----------------------------------|
----------------------------------|----------------------------------|


   E   E   E   E   E   E   E   E      E   E   E   E   E   E   E   E   
----------------------------------|----------------------------------|
--14----------14------------------|--14----------14------------------|
------14----------14------14------|------14----------14------14------|
----------12----------12------12--|----------12----------12------12--|
----------------------------------|----------------------------------|
----------------------------------|----------------------------------|


   E   E   E   E   E   E   E   E      E   E   E   E   E   E   E   E   
----------------------------------|----------------------------------|
--12----------12------------------|--12----------12------------------|
------14----------14------14------|------14----------14------14------|
----------14----------14------14--|----------14----------14------14--|
----------------------------------|----------------------------------|
----------------------------------|----------------------------------|


   E   E   E   E   E   E   E   E      E   E   E   E   E   E   E   E   
----------------------------------|----------------------------------|
--12----------12------------------|--12----------12------------------|
------14----------14------14------|------14----------14------14------|
----------14----------14------14--|----------14----------14------14--|
----------------------------------|----------------------------------|
----------------------------------|----------------------------------|


   E   E   E   E   E   E   E   E      E   E   E   E   E   E   E   E   
----------------------------------|----------------------------------|
--14----------14------------------|--14----------14------------------|
------14----------14------14------|------14----------14------14------|
----------12----------12------12--|----------12----------12------12--|
----------------------------------|----------------------------------|
----------------------------------|----------------------------------|


   E   E   E   E   E   E   E   E      E   E   E   E   E   E   E   E   
----------------------------------|----------------------------------|
--14----------14------------------|--14----------14------------------|
------14----------14------14------|------14----------14------14------|
----------12----------12------12--|----------12----------12------12--|
----------------------------------|----------------------------------|
----------------------------------|----------------------------------|


   E   E   E   E   E   E   E   E      E   E   E   E   E   E   E   E   
--12----------12------------------|--12----------12------------------|
------10----------10------10------|------10----------10------10------|
----------13----------13------13--|----------13----------13------13--|
----------------------------------|----------------------------------|
----------------------------------|----------------------------------|
----------------------------------|----------------------------------|


   E   E   E   E   E   E   E   E      E   E   E   E   E   E   E   E   
--12----------12------------------|--12----------12------------------|
------10----------10------10------|------10----------10------10------|
----------13----------13------13--|----------13----------13------13--|
----------------------------------|----------------------------------|
----------------------------------|----------------------------------|
----------------------------------|----------------------------------|


   E     E   E   E  E   E   E    E      E     E   E   E  E   E   E    E   
------------------------------------|------------------------------------|
----------------10------------------|----------------10------------------|
-------------9------9---------------|-------------9------9---------------|
--11h--(12)------------12--12s--11--|--11h--(12)------------12--12s--11--|
------------------------------------|------------------------------------|
------------------------------------|------------------------------------|


   E     E   E   E  E   E   E    E      E     E   E   E  E   E   E    E   
------------------------------------|------------------------------------|
----------------10------------------|----------------10------------------|
-------------9------9---------------|-------------9------9---------------|
--11h--(12)------------12--12s--11--|--11h--(12)------------12--12s--11--|
------------------------------------|------------------------------------|
------------------------------------|------------------------------------|


   E   E   E   E   E   E   E   E      E   E   E   E   E   E   E   E   
----------------------------------|----------------------------------|
--12----------12------------------|--12----------12------------------|
------14----------14------14------|------14----------14------14------|
----------14----------14------14--|----------14----------14------14--|
----------------------------------|----------------------------------|
----------------------------------|----------------------------------|


   E   E   E   E   E   E   E   E      E   E   E   E   E   E   E   E   
----------------------------------|----------------------------------|
--12----------12------------------|--12----------12------------------|
------14----------14------14------|------14----------14------14------|
----------14----------14------14--|----------14----------14------14--|
----------------------------------|----------------------------------|
----------------------------------|----------------------------------|


   E   E   E   E   E   E   E   E      E   E   E   E   E   E   E   E   
----------------------------------|----------------------------------|
--14----------14------------------|--14----------14------------------|
------14----------14------14------|------14----------14------14------|
----------12----------12------12--|----------12----------12------12--|
----------------------------------|----------------------------------|
----------------------------------|----------------------------------|


   E   E   E   E   E   E   E   E      E   E   E   E   E   E   E   E   
----------------------------------|----------------------------------|
--14----------14------------------|--14----------14------------------|
------14----------14------14------|------14----------14------14------|
----------12----------12------12--|----------12----------12------12--|
----------------------------------|----------------------------------|
----------------------------------|----------------------------------|


   E   E   E   E   E   E   E   E      E   E   E   E   E   E   E   E   
----------------------------------|----------------------------------|
--12----------12------------------|--12----------12------------------|
------14----------14------14------|------14----------14------14------|
----------14----------14------14--|----------14----------14------14--|
----------------------------------|----------------------------------|
----------------------------------|----------------------------------|


   E   E   E   E   E   E   E   E      E   E   E   E   E   E   E   E   
----------------------------------|----------------------------------|
--12----------12------------------|--12----------12------------------|
------14----------14------14------|------14----------14------14------|
----------14----------14------14--|----------14----------14------14--|
----------------------------------|----------------------------------|
----------------------------------|----------------------------------|


   E   E   E   E   E   E   E   E      E   E   E   E   E   E   E   E   
----------------------------------|----------------------------------|
--14----------14------------------|--14----------14------------------|
------14----------14------14------|------14----------14------14------|
----------12----------12------12--|----------12----------12------12--|
----------------------------------|----------------------------------|
----------------------------------|----------------------------------|


   E   E   E   E   E   E   E   E      E   E   E   E   E   E   E   E   
----------------------------------|----------------------------------|
--14----------14------------------|--14----------14------------------|
------14----------14------14------|------14----------14------14------|
----------12----------12------12--|----------12----------12------12--|
----------------------------------|----------------------------------|
----------------------------------|----------------------------------|


   E   E   E   E   E   E   E   E      E   E   E   E   E   E   E   E   
--12----------12------------------|--12----------12------------------|
------10----------10------10------|------10----------10------10------|
----------13----------13------13--|----------13----------13------13--|
----------------------------------|----------------------------------|
----------------------------------|----------------------------------|
----------------------------------|----------------------------------|


   E   E   E   E   E   E   E   E      E   E   E   E   E   E   E   E   
--12----------12------------------|--12----------12------------------|
------10----------10------10------|------10----------10------10------|
----------13----------13------13--|----------13----------13------13--|
----------------------------------|----------------------------------|
----------------------------------|----------------------------------|
----------------------------------|----------------------------------|


   E     E   E   E  E   E   E    E      E     E   E   E  E   E   E    E   
------------------------------------|------------------------------------|
----------------10------------------|----------------10------------------|
-------------9------9---------------|-------------9------9---------------|
--11h--(12)------------12--12s--11--|--11h--(12)------------12--12s--11--|
------------------------------------|------------------------------------|
------------------------------------|------------------------------------|


   E     E   E   E  E   E   E    E      E     E   E   E  E   E   E    E   
------------------------------------|------------------------------------|
----------------10------------------|----------------10------------------|
-------------9------9---------------|-------------9------9---------------|
--11h--(12)------------12--12s--11--|--11h--(12)------------12--12s--11--|
------------------------------------|------------------------------------|
------------------------------------|------------------------------------|


   E   E   E   E   E   E   E   E      E   E   E   E   E   E   E   E   
--12----------12------------------|--12----------12------------------|
------10----------10------10------|------10----------10------10------|
----------13----------13------13--|----------13----------13------13--|
----------------------------------|----------------------------------|
----------------------------------|----------------------------------|
----------------------------------|----------------------------------|


   E   E   E   E   E   E   E   E      E   E   E   E   E   E   E   E   
--12----------12------------------|--12----------12------------------|
------10----------10------10------|------10----------10------10------|
----------13----------13------13--|----------13----------13------13--|
----------------------------------|----------------------------------|
----------------------------------|----------------------------------|
----------------------------------|----------------------------------|


   E   E   E   E   E   E   E   E      E   E   E   E   E   E   E   E   
----------------------------------|----------------------------------|
--14----------14------------------|--14----------14------------------|
------14----------14------14------|------14----------14------14------|
----------12----------12------12--|----------12----------12------12--|
----------------------------------|----------------------------------|
----------------------------------|----------------------------------|


   E   E   E   E   E   E   E   E      E   E   E   E   E   E   E   E   
----------------------------------|----------------------------------|
--14----------14------------------|--14----------14------------------|
------14----------14------14------|------14----------14------14------|
----------12----------12------12--|----------12----------12------12--|
----------------------------------|----------------------------------|
----------------------------------|----------------------------------|


  E  E  E  E  E  E  E  E     E  E  E  E  E  E  E  E   
--------------------------|--------------------------|
--------------------------|--------------------------|
--9--9--9--9--9--9--9--9--|--9--9--9--9--9--9--9--9--|
--------------------------|--------------------------|
--------------------------|--------------------------|
--------------------------|--------------------------|


  E  E  E  E  E  E  E  E     E  E  E   E  E   E  E  E   
--------------------------|----------------------------|
--------------------------|----------------------------|
--9--9--9--9--9--9--9--9--|--9--9--9S--7--7S--6--6--6--|
--------------------------|----------------------------|
--------------------------|----------------------------|
--------------------------|----------------------------|


  E  E  E  E  E  E  E  E      E  E  E   E  E   E  E  E   
---------------------------|----------------------------|
---------------------------|----------------------------|
--6--6--6--6--2--2--2--2s--|--9--9--9S--7--7S--6--6--6--|
---------------------------|----------------------------|
---------------------------|----------------------------|
---------------------------|----------------------------|


  E  E  E  E  E  E  E  E     E  E  E  E  E  E  E  E    
--------------------------|---------------------------|
--------------------------|---------------------------|
--6--6--6--6--2--2--2--2--|--2--2--2--2--2--2--2--2s--|
--------------------------|---------------------------|
--------------------------|---------------------------|
--------------------------|---------------------------|


  E  E  E  E  E  E  E  E     E  E  E  E  E  E  E  E   
--------------------------|--------------------------|
--------------------------|--------------------------|
--9--9--9--9--9--9--9--9--|--9--9--9--9--9--9--9--9--|
--------------------------|--------------------------|
--------------------------|--------------------------|
--------------------------|--------------------------|


  E  E  E  E  E  E  E  E     E  E  E   E  E   E  E  E   
--------------------------|----------------------------|
--------------------------|----------------------------|
--9--9--9--9--9--9--9--9--|--9--9--9S--7--7S--6--6--6--|
--------------------------|----------------------------|
--------------------------|----------------------------|
--------------------------|----------------------------|


  E  E  E  E  E  E  E  E      E  E  E   E  E   E  E  E   
---------------------------|----------------------------|
---------------------------|----------------------------|
--6--6--6--6--2--2--2--2s--|--9--9--9S--7--7S--6--6--6--|
---------------------------|----------------------------|
---------------------------|----------------------------|
---------------------------|----------------------------|


  E  E  E  E  E  E  E  E     E  E  E  E  E  E  E  E     Q    Q    Q    Q     
--------------------------|--------------------------|----------------------|
--------------------------|--------------------------|------------9---------|
--6--6--6--6--2--2--2--2--|--2--2--2--2--2--2--2--2--|-------9---------9----|
--------------------------|--------------------------|--7-------------------|
--------------------------|--------------------------|----------------------|
--------------------------|--------------------------|----------------------|


                                                 >          >          
  Q    Q    Q    Q       Q    Q    Q    Q        Q    Q     Q    Q     
----------------------|----------------------|------------------------|
------------9---------|------------9---------|--10---------12---------|
-------9---------9----|-------9---------9----|--------9----------9----|
--7-------------------|--7-------------------|------------------------|
----------------------|----------------------|------------------------|
----------------------|----------------------|------------------------|


  Q    Q    Q    Q       Q    Q    Q    Q       Q    Q    Q    Q     
----------------------|----------------------|----------------------|
------------9---------|------------9---------|------------9---------|
-------9---------9----|-------9---------9----|-------9---------9----|
--7-------------------|--7-------------------|--7-------------------|
----------------------|----------------------|----------------------|
----------------------|----------------------|----------------------|


   >          >                                                          
   Q    Q     Q    Q                                                     
------------------------|-------|-------|-------|-------|-------|-------|
--10---------12---------|-------|-------|-------|-------|-------|-------|
--------9----------9----|-------|-------|-------|-------|-------|-------|
------------------------|-------|-------|-------|-------|-------|-------|
------------------------|-------|-------|-------|-------|-------|-------|
------------------------|-------|-------|-------|-------|-------|-------|


                   E   E   E   E   E   E   E   E   
-------|-------|----------------------------------|
-------|-------|------------------17--15--14--15--|
-------|-------|--14--14--14--14------------------|
-------|-------|----------------------------------|
-------|-------|----------------------------------|
-------|-------|----------------------------------|


   E   E   E   E   E   E   E   E      E   E   E   E   E   E   E   E   
----------------------------------|----------------------------------|
--14--------------17--15--14--15--|--14--------------17--15--14--15--|
------14--14--14------------------|------14--14--14------------------|
----------------------------------|----------------------------------|
----------------------------------|----------------------------------|
----------------------------------|----------------------------------|


   E   E   E   E   E   E   E   E      E   E   E   E   E   E   E   E   
----------------------------------|----------------------------------|
--14--------------17--15--14--15--|--14--------------17--15--14--15--|
------14--14--14------------------|------14--14--14------------------|
----------------------------------|----------------------------------|
----------------------------------|----------------------------------|
----------------------------------|----------------------------------|


   E   E   E   E   E   E   E   E      E   E   E   E   E   E   E   E   
----------------------------------|----------------------------------|
--14--------------17--15--14--15--|--14--------------17--15--14--15--|
------14--14--14------------------|------14--14--14------------------|
----------------------------------|----------------------------------|
----------------------------------|----------------------------------|
----------------------------------|----------------------------------|


   E   E   E   E   E   E   E   E      E   E   E   E   E   E   E   E   
----------------------------------|----------------------------------|
--14--------------17--15--14--15--|--14--------------17--15--14--15--|
------14--14--14------------------|------14--14--14------------------|
----------------------------------|----------------------------------|
----------------------------------|----------------------------------|
----------------------------------|----------------------------------|


   E   E   E   E   E   E   E   E      E   E   E   E   E   E   E   E   
----------------------------------|----------------------------------|
--14--------------17--15--14--15--|--14--------------17--15--14--15--|
------14--14--14------------------|------14--14--14------------------|
----------------------------------|----------------------------------|
----------------------------------|----------------------------------|
----------------------------------|----------------------------------|


   E   E   E   E   E   E   E   E      E   E   E   E   E   E   E   E   
----------------------------------|----------------------------------|
--14--------------17--15--14--15--|--14--------------17--15--14--15--|
------14--14--14------------------|------14--14--14------------------|
----------------------------------|----------------------------------|
----------------------------------|----------------------------------|
----------------------------------|----------------------------------|


   E   E   E   E   E   E   E   E      E   E   E   E   E   E   E   E   
----------------------------------|----------------------------------|
--14--------------17--15--14--15--|--14--------------17--15--14--15--|
------14--14--14------------------|------14--14--14------------------|
----------------------------------|----------------------------------|
----------------------------------|----------------------------------|
----------------------------------|----------------------------------|


   E   E   E   E   E   E   E   E      E   E   E   E   E   E   E  E   
----------------------------------|---------------------------------|
--14--------------17--15--14--15--|--14----------17--14--14--14-----|
------14--14--14------------------|------14--14---------------------|
----------------------------------|---------------------------------|
----------------------------------|---------------------------------|
----------------------------------|---------------------------------|


   E   E   E   E   E   E   E  E      E   E   E   E   E   E   E  E   
---------------------------------|---------------------------------|
--14----------17--14--14--10-----|--14----------17--14--14--14-----|
------14--14---------------------|------14--14---------------------|
---------------------------------|---------------------------------|
---------------------------------|---------------------------------|
---------------------------------|---------------------------------|


                                     TP        TP  TP        TP  
   E   E   E   E   E   E   E  E      E  E  E   E   E  E  E   E   
---------------------------------|------------16--16--------17--|
--14----------17--14--14--10-----|--14--------------------------|
------14--14---------------------|------------------------------|
---------------------------------|------------------------------|
---------------------------------|------------------------------|
---------------------------------|------------------------------|


   TP        TP  TP     TP        TP        TP  TP        TP  
   E  E  E   E   E  E   E  E      E  E  E   E   E  E  E   E   
--17--------------------------|------------16--16--------17--|
------------17--17-----15-----|--14--------------------------|
------------------------------|------------------------------|
------------------------------|------------------------------|
------------------------------|------------------------------|
------------------------------|------------------------------|


   TP        TP  TP     TP                                       
   E  E  E   E   E  E   E  E      E   E   E   E   E   E   E  E   
--17--------------------------|---------------------------------|
------------17--17-----15-----|--14----------17--14--14--14-----|
------------------------------|------14--14---------------------|
------------------------------|---------------------------------|
------------------------------|---------------------------------|
------------------------------|---------------------------------|


   E   E   E   E   E   E   E  E      E   E   E   E   E   E   E  E   
---------------------------------|---------------------------------|
--14----------17--14--14--10-----|--14----------17--14--14--14-----|
------14--14---------------------|------14--14---------------------|
---------------------------------|---------------------------------|
---------------------------------|---------------------------------|
---------------------------------|---------------------------------|


                                     TP        TP  TP        TP  
   E   E   E   E   E   E   E  E      E  E  E   E   E  E  E   E   
---------------------------------|------------16--16--------17--|
--14----------17--14--14--10-----|--14--------------------------|
------14--14---------------------|------------------------------|
---------------------------------|------------------------------|
---------------------------------|------------------------------|
---------------------------------|------------------------------|


   TP        TP  TP     TP        TP        TP  TP        TP  
   E  E  E   E   E  E   E  E      E  E  E   E   E  E  E   E   
--17--------------------------|------------16--16--------17--|
------------17--17-----15-----|--14--------------------------|
------------------------------|------------------------------|
------------------------------|------------------------------|
------------------------------|------------------------------|
------------------------------|------------------------------|

   TP        TP  TP     TP   
   E  E  E   E   E  E   E  E  
--17--------19--19-----21-----|
------------------------------|
------------------------------|
------------------------------|
------------------------------|
------------------------------|
Gordon



G||-------|-------|-------|-------|-------|-------|-------|-------|
D||-------|-------|-------|-------|-------|-------|-------|-------|
A||-------|-------|-------|-------|-------|-------|-------|-------|
E||-------|-------|-------|-------|-------|-------|-------|-------|


  Q    Q    Q    Q       Q    Q    Q    Q       Q    Q    Q    Q     
------------4---------|------------4---------|------------4---------|
-------7---------7----|-------7---------7----|-------7---------7----|
--0-------------------|--0-------------------|--0-------------------|
----------------------|----------------------|----------------------|


  Q    Q    Q    Q       Q    Q    Q    Q       Q    Q    Q    Q     
------------4---------|------------6---------|------------6---------|
-------7---------7----|-------7---------7----|-------7---------7----|
--0-------------------|--5-------------------|--5-------------------|
----------------------|----------------------|----------------------|


  Q    Q    Q    Q       Q    Q    Q    Q       Q    Q    Q    Q     
------------6---------|------------6---------|------------4---------|
-------7---------7----|-------7---------7----|-------7---------7----|
--5-------------------|--5-------------------|--0-------------------|
----------------------|----------------------|----------------------|


  Q    Q    Q    Q       Q    Q    Q    Q       Q    Q    Q    Q     
------------4---------|------------4---------|------------4---------|
-------7---------7----|-------7---------7----|-------7---------7----|
--0-------------------|--0-------------------|--0-------------------|
----------------------|----------------------|----------------------|


  Q    Q    Q    Q       Q    Q    Q    Q       Q    Q    Q    Q     
------------6---------|------------6---------|------------6---------|
-------7---------7----|-------7---------7----|-------7---------7----|
--5-------------------|--5-------------------|--5-------------------|
----------------------|----------------------|----------------------|


  Q    Q    Q    Q       Q    Q    Q    Q       Q    Q    Q    Q     
------------6---------|------------4---------|------------4---------|
-------7---------7----|-------7---------7----|-------7---------7----|
--5-------------------|--0-------------------|--0-------------------|
----------------------|----------------------|----------------------|


  Q    Q    Q    Q       Q    Q    Q    Q       Q    Q    Q    Q     
------------4---------|------------4---------|------------6---------|
-------7---------7----|-------7---------7----|-------7---------7----|
--0-------------------|--0-------------------|--5-------------------|
----------------------|----------------------|----------------------|


  Q    Q    Q    Q       Q    Q    Q    Q       Q    Q    Q    Q     
------------6---------|------------6---------|------------6---------|
-------7---------7----|-------7---------7----|-------7---------7----|
--5-------------------|--5-------------------|--5-------------------|
----------------------|----------------------|----------------------|


  Q    Q    Q    Q       Q    Q    Q    Q       Q    Q    Q    Q     
------------4---------|------------4---------|------------4---------|
-------7---------7----|-------7---------7----|-------7---------7----|
--0-------------------|--0-------------------|--0-------------------|
----------------------|----------------------|----------------------|


  Q    Q    Q    Q       Q    Q    Q    Q       Q    Q    Q    Q     
------------4---------|------------6---------|------------6---------|
-------7---------7----|-------7---------7----|-------7---------7----|
--0-------------------|--5-------------------|--5-------------------|
----------------------|----------------------|----------------------|


  Q    Q    Q    Q       Q    Q    Q    Q       Q    Q    Q    Q     
------------6---------|------------6---------|------------4---------|
-------7---------7----|-------7---------7----|-------7---------7----|
--5-------------------|--5-------------------|--0-------------------|
----------------------|----------------------|----------------------|


  Q    Q    Q    Q       Q    Q    Q    Q       Q    Q    Q    Q     
------------4---------|------------4---------|------------4---------|
-------7---------7----|-------7---------7----|-------7---------7----|
--0-------------------|--0-------------------|--0-------------------|
----------------------|----------------------|----------------------|


  Q    Q    Q    Q       Q    Q    Q    Q       Q    Q    Q    Q     
------------6---------|------------6---------|------------6---------|
-------7---------7----|-------7---------7----|-------7---------7----|
--5-------------------|--5-------------------|--5-------------------|
----------------------|----------------------|----------------------|


  Q    Q    Q    Q       Q    Q    Q    Q       Q    Q    Q    Q     
------------6---------|------------4---------|------------4---------|
-------7---------7----|-------7---------7----|-------7---------7----|
--5-------------------|--0-------------------|--0-------------------|
----------------------|----------------------|----------------------|


  Q    Q    Q    Q       Q    Q    Q    Q       Q    Q    Q    Q     
------------4---------|------------4---------|------------6---------|
-------7---------7----|-------7---------7----|-------7---------7----|
--0-------------------|--0-------------------|--5-------------------|
----------------------|----------------------|----------------------|


  Q    Q    Q    Q       Q    Q    Q    Q       Q    Q    Q    Q     
------------6---------|------------6---------|------------6---------|
-------7---------7----|-------7---------7----|-------7---------7----|
--5-------------------|--5-------------------|--5-------------------|
----------------------|----------------------|----------------------|


  Q    Q    Q    Q       Q    Q    Q    Q       Q    Q    Q    Q     
------------4---------|------------4---------|------------4---------|
-------7---------7----|-------7---------7----|-------7---------7----|
--0-------------------|--0-------------------|--0-------------------|
----------------------|----------------------|----------------------|


  Q    Q    Q    Q       Q    Q    Q    Q       Q    Q    Q    Q     
------------4---------|------------6---------|------------6---------|
-------7---------7----|-------7---------7----|-------7---------7----|
--0-------------------|--5-------------------|--5-------------------|
----------------------|----------------------|----------------------|


  Q    Q    Q    Q       Q    Q    Q    Q       Q    Q    Q    Q     
------------6---------|------------6---------|------------4---------|
-------7---------7----|-------7---------7----|-------7---------7----|
--5-------------------|--5-------------------|--0-------------------|
----------------------|----------------------|----------------------|


  Q    Q    Q    Q       Q    Q    Q    Q       Q    Q    Q    Q     
------------4---------|------------4---------|------------4---------|
-------7---------7----|-------7---------7----|-------7---------7----|
--0-------------------|--0-------------------|--0-------------------|
----------------------|----------------------|----------------------|


  Q    Q    Q    Q       Q    Q    Q    Q       Q    Q    Q    Q     
------------6---------|------------6---------|------------6---------|
-------7---------7----|-------7---------7----|-------7---------7----|
--5-------------------|--5-------------------|--5-------------------|
----------------------|----------------------|----------------------|


  Q    Q    Q    Q       Q    Q    Q    Q       Q    Q    Q    Q     
------------6---------|------------4---------|------------4---------|
-------7---------7----|-------7---------7----|-------7---------7----|
--5-------------------|--0-------------------|--0-------------------|
----------------------|----------------------|----------------------|


  Q    Q    Q    Q       Q    Q    Q    Q                                     
------------4---------|------------4---------|-------|-------|-------|-------|
-------7---------7----|-------7---------7----|-------|-------|-------|-------|
--0-------------------|--0-------------------|-------|-------|-------|-------|
----------------------|----------------------|-------|-------|-------|-------|


  Q    Q    Q    Q       Q    Q    Q    Q       Q    Q    Q    Q     
------------4---------|------------4---------|------------4---------|
-------7---------7----|-------7---------7----|-------7---------7----|
--0-------------------|--0-------------------|--0-------------------|
----------------------|----------------------|----------------------|


  Q    Q    Q    Q       Q    Q    Q    Q       Q    Q    Q    Q     
------------4---------|------------6---------|------------6---------|
-------7---------7----|-------7---------7----|-------7---------7----|
--0-------------------|--5-------------------|--5-------------------|
----------------------|----------------------|----------------------|


  Q    Q    Q    Q       Q    Q    Q    Q       Q    Q    Q    Q     
------------6---------|------------6---------|------------4---------|
-------7---------7----|-------7---------7----|-------7---------7----|
--5-------------------|--5-------------------|--0-------------------|
----------------------|----------------------|----------------------|


  Q    Q    Q    Q       Q    Q    Q    Q       Q    Q    Q    Q     
------------4---------|------------4---------|------------4---------|
-------7---------7----|-------7---------7----|-------7---------7----|
--0-------------------|--0-------------------|--0-------------------|
----------------------|----------------------|----------------------|


  Q    Q    Q    Q       Q    Q    Q    Q       Q    Q    Q    Q     
------------6---------|------------6---------|------------6---------|
-------7---------7----|-------7---------7----|-------7---------7----|
--5-------------------|--5-------------------|--5-------------------|
----------------------|----------------------|----------------------|


  Q    Q    Q    Q       Q    Q    Q    Q       Q    Q    Q    Q     
------------6---------|------------4---------|------------4---------|
-------7---------7----|-------7---------7----|-------7---------7----|
--5-------------------|--0-------------------|--0-------------------|
----------------------|----------------------|----------------------|


  Q    Q    Q    Q       Q    Q    Q    Q       Q    Q    Q    Q     
------------4---------|------------4---------|------------6---------|
-------7---------7----|-------7---------7----|-------7---------7----|
--0-------------------|--0-------------------|--5-------------------|
----------------------|----------------------|----------------------|


  Q    Q    Q    Q       Q    Q    Q    Q       Q    Q    Q    Q     
------------6---------|------------6---------|------------6---------|
-------7---------7----|-------7---------7----|-------7---------7----|
--5-------------------|--5-------------------|--5-------------------|
----------------------|----------------------|----------------------|


  Q    Q    Q    Q       Q    Q    Q    Q       Q    Q    Q    Q     
------------4---------|------------4---------|------------4---------|
-------7---------7----|-------7---------7----|-------7---------7----|
--0-------------------|--0-------------------|--0-------------------|
----------------------|----------------------|----------------------|


  Q    Q    Q    Q       Q    Q    Q    Q       Q    Q    Q    Q     
------------4---------|------------6---------|------------6---------|
-------7---------7----|-------7---------7----|-------7---------7----|
--0-------------------|--5-------------------|--5-------------------|
----------------------|----------------------|----------------------|


  Q    Q    Q    Q       Q    Q    Q    Q       Q    Q    Q    Q     
------------6---------|------------6---------|------------4---------|
-------7---------7----|-------7---------7----|-------7---------7----|
--5-------------------|--5-------------------|--0-------------------|
----------------------|----------------------|----------------------|


  Q    Q    Q    Q       Q    Q    Q    Q       Q    Q    Q    Q     
------------4---------|------------4---------|------------4---------|
-------7---------7----|-------7---------7----|-------7---------7----|
--0-------------------|--0-------------------|--0-------------------|
----------------------|----------------------|----------------------|


  Q    Q    Q    Q       Q    Q    Q    Q       Q    Q    Q    Q     
------------6---------|------------6---------|------------6---------|
-------7---------7----|-------7---------7----|-------7---------7----|
--5-------------------|--5-------------------|--5-------------------|
----------------------|----------------------|----------------------|


  Q    Q    Q    Q       Q    Q    Q    Q       Q    Q    Q    Q     
------------6---------|------------4---------|------------4---------|
-------7---------7----|-------7---------7----|-------7---------7----|
--5-------------------|--0-------------------|--0-------------------|
----------------------|----------------------|----------------------|


  Q    Q    Q    Q       Q    Q    Q    Q       Q    Q    Q    Q     
------------4---------|------------4---------|------------6---------|
-------7---------7----|-------7---------7----|-------7---------7----|
--0-------------------|--0-------------------|--5-------------------|
----------------------|----------------------|----------------------|


  Q    Q    Q    Q       Q    Q    Q    Q       Q    Q    Q    Q     
------------6---------|------------6---------|------------6---------|
-------7---------7----|-------7---------7----|-------7---------7----|
--5-------------------|--5-------------------|--5-------------------|
----------------------|----------------------|----------------------|


  E  E  E  E  E  E  E  E     E  E  E  E  E  E  E  E   
-----------9--9-----------|-----------6--6-----------|
--7--------------------9--|--9-----------------9-----|
--------------------------|--------------------------|
--------------------------|--------------------------|


  E  E  E  E  E  E  E  E     E  E  E  E  E  E  E  E   
-----------9--9-----------|-----------6--6-----------|
--7--------------------9--|--9-----------------9-----|
--------------------------|--------------------------|
--------------------------|--------------------------|


  E  E  E  E  E  E  E  E     E  E  E  E  E  E  E  E   
-----------9--9-----------|-----------6--6-----------|
--7--------------------9--|--9-----------------9-----|
--------------------------|--------------------------|
--------------------------|--------------------------|


  E  E  E  E  E  E  E  E     E  E  E  E  E  E  E  E   
-----------9--9-----------|-----------6--6-----------|
--7--------------------9--|--9-----------------9-----|
--------------------------|--------------------------|
--------------------------|--------------------------|


  E  E  E  E  E  E  E  E     E  E  E  E  E  E  E  E   
-----------9--9-----------|-----------6--6-----------|
--7--------------------9--|--9-----------------9-----|
--------------------------|--------------------------|
--------------------------|--------------------------|


  E  E  E  E  E  E  E  E     E  E  E  E  E  E  E  E   
-----------9--9-----------|-----------6--6-----------|
--7--------------------9--|--9-----------------9-----|
--------------------------|--------------------------|
--------------------------|--------------------------|


  E  E  E  E  E  E  E  E     E  E  E  E  E  E  E  E   
-----------9--9-----------|-----------6--6-----------|
--7--------------------9--|--9-----------------9-----|
--------------------------|--------------------------|
--------------------------|--------------------------|


  E  E  E  E  E  E  E  E     E  E  E  E  E  E  E  E                           
-----------9--9-----------|-----------6--6-----------|
--7--------------------9--|--9-----------------9-----|
--------------------------|--------------------------|
--------------------------|--------------------------|


Duration Legend
---------------
W - whole
H - half
Q - quarter
E - 8th
S - 16th
T - 32nd
X - 64th
. - note dotted
|-n-|  - n-tuplets


Tablature Legend
----------------
L - tied note
x - dead note
g - grace note
(n) - ghost note
> - accentuded note
NH - natural harmonic
AH - artificial harmonic
TH - tapped harmonic
SH - semi harmonic
PH - pitch harmonic
h - hammer on
p - pull off
b - bend
br - bendRelease
pb - preBend
pbr - preBendRelease
brb - bendReleaseBend
\n/ - tremolo bar dip
\n - tremolo bar dive
-/n - tremolo bar Release up
/n\ - tremolo bar inverted dip
/n - tremolo bar return
-\n - tremolo bar Release down
S - shift slide
s - legato slide
/ -  slide into from below or out of upwards
\ -  slide into from above or out of downwards
~ - vibrato
W - wide vibrato
tr - trill
TP - tremolo picking
T - tapping
S - slap
P - pop
< - fade in
^ - brush up
v - brush down


comments
print report bad tab
3 comments total.
+4 reply
sonic_777111 wrote on May 23 2010, 04:50 pm

Just advice:
Try to keep your tabs fairly concise...you don't have to write out every note, especially if it's Bloc Party layering a bunch of repeated riffs.

The form that it suggests is dumb.

0 reply
amahmud wrote on July 10 2014, 02:01 pm

Clearly wrong.

0 reply
amahmud wrote on September 28 2014, 10:26 am, edited at 05:30 pm

****, it's actually correct

I want to post or [tab]
guest
You may want to rate the tab now too:
select rating
Please do not post tabs as comments. Select "correction" instead!