Oops, an error
Loading. Please wait.

Tulips Bass Tab

ver3
ver3

Whole song

More versions @911Tabs.com
630 views 3 this week
no commentswrite comment
1 2 3 4 5
excellent!
x 1
Autoscroll
+/-
esc
set tempo
stop
Contributor
WARNING: You are trying to view
                                    content from Ultimate-Guitar.com
                                    in an unauthorized application,
                                    which is prohibited.

                                    Please use an official Ultimate
                                    Guitar Tabs application for iPhone,
                                    iPad or Android to access legitimate
                                    chords, guitar, bass, and drum tabs
                                    from Ultimate-Guitar.com database.

                                    Type "ultimate guitar tabs" in Apple
                                    App Store's or Android Market's
                                    search to find the application.
Tulips

Party


G||-------|-------|-------|-------|
D||-------|-------|-------|-------|
A||-------|-------|-------|-------|
E||-------|-------|-------|-------|

  S                                                S S S S S S S S S S S S S S S
---------------------------------------------------------------------------------|
--9------------------------------------------------9-9-9-9-9-9-------------------|
---------------------------------------------------------------7-7-7-7-7-7-7-7-7-|
---------------------------------------------------------------------------------|

  S                                                S S S S S S  S  S  S  S  S  S
---------------------------------------------------------------------------------|
---------------------------------------------------------------------------------|
---------------------------------------------------------------10-10-10-10-10-10-|
--7------------------------------------------------7-7-7-7-7-7-------------------|

  S                                                S S S S S S S S S S
--------------------------------------------------------------------------------|
--9------------------------------------------------9-9-9-9-9-9------------------|
---------------------------------------------------------------7-7-7-7----------|
--------------------------------------------------------------------------------|


  S S S S S S S S S S S S S S S S    S S S S S S S S S S S S S S S S
----------------------------------|----------------------------------|
----------------------------------|--9-9-9-9-9-9-9-------------------|
----------------------------------|----------------7-7-7-7-7-7-7-7-7-|
--7-7-7-7-7-7-7-3-3-3-3-3-3-3-3-3-|----------------------------------|


  S S S S S S S  S  S  S  S  S  S  S  S  S    S S S S S S S S S S S S S S S S
-------------------------------------------|----------------------------------|
-------------------------------------------|--9-9-9-9-9-9-9-------------------|
----------------10-10-10-10-10-10-10-10-10-|----------------7-7-7-7-7-7-7-7-7-|
--7-7-7-7-7-7-7----------------------------|----------------------------------|


  S S S S S S S S S S S S S S S S
----------------------------------|-------|-------|-------|
----------------------------------|-------|-------|-------|
----------------------------------|-------|-------|-------|
--7-7-7-7-7-7-7-3-3-3-3-3-3-3-3-3-|-------|-------|-------|


  H.           E  S S    S S S H.           S    S S S S E.  H        S
----------------------|-----------------------|-------------------------|
----------------------|-----------------------|-------------------------|
----------------------|-----------------------|-------------------------|
--------------------5-|--7-7-7--------------5-|--7-7---------0--------5-|


  S S S Q.     Q.     S    S S S E  S S H        S
------------------------|--------------------------|
------------------------|---------------7--------L-|
------------------------|-----------5-7------------|
--7-7-7---------------5-|--7-7---------------------|


  S S S S S S S S S S S S S S S S    S  S S S S S S S S S S S S S S S
----------------------------------|-----------------------------------|
--7-9-9-9-9-0-7-9-9-9-9-9-9-9-0-7-|--9p-7-7-7-7-----7-7-7-7-7-7-7-----|
----------------------------------|-------------7-9---------------7-9-|
----------------------------------|-----------------------------------|


  S S S S S S S S S S S S S S S S    S S S S S S S S S S S Q    S
----------------------------------|-------------------------------|
--5-5-5-5-5-----5-5-5-5-5-5-5-5-5-|-------------------------------|
------------5-7-------------------|--5-5-5-5-5-5-5----------------|
----------------------------------|----------------5-5-5-5-0----L-|


  S S S S S S S S S S S S S S S S    S  S S S S S S S S S S S S S S S
----------------------------------|-----------------------------------|
--7-9-9-9-9-0-7-9-9-9-9-9-9-9-0-7-|--9p-7-7-7-7-----7-7-7-7-7-7-7-----|
----------------------------------|-------------7-9---------------7-9-|
----------------------------------|-----------------------------------|


  S S S S S S S S S S S S S S S S    S S S S S S S S S S S Q    S
----------------------------------|-------------------------------|
--5-5-5-5-5-----5-5-5-5-5-5-5-5-5-|-------------------------------|
------------5-7-------------------|--5-5-5-5-5-5-5----------------|
----------------------------------|----------------5-5-5-5-0----5-|


  S S S H        Q    S    S S S S E.  H        S    S S S H        Q    S
------------------------|-------------------------|------------------------|
------------------------|-------------------------|------------------------|
------------------------|-------------------------|------------------------|
--7-7-7---------------5-|--7-7-7-------0--------5-|--7-7-7---------------5-|


  S S S E  S S H        S    S S S H        Q    S    S S S S E.  H        S
--------------------------|------------------------|-------------------------|
---------------5--------L-|------------------------|-------------------------|
-----------5-7------------|------------------------|-------------------------|
--7-7-7-------------------|--7-7-7---------------5-|--7-7-7-------0--------5-|


  S S S H        Q    S    S S S E  S S H        S
------------------------|--------------------------|
------------------------|---------------7--------L-|
------------------------|-----------5-7------------|
--7-7-7---------------5-|--7-7-7-------------------|


  S S S S S S S S S S S S S S S S    S  S S S S S S S S S S S S S S S
----------------------------------|-----------------------------------|
--7-9-9-9-9-0-7-9-9-9-9-9-9-9-0-7-|--7h-7-7-7-7-----7-7-7-7-7-7-7-----|
----------------------------------|-------------7-9---------------7-9-|
----------------------------------|-----------------------------------|


  S S S S S S S S S S S S S S S S    S S S S S S S S S S S Q    S
----------------------------------|-------------------------------|
--5-5-5-5-5-----5-5-5-5-5-5-5-5-5-|-------------------------------|
------------5-7-------------------|--5-5-5-5-5-5-5----------------|
----------------------------------|----------------5-5-5-5-0----L-|


  S S S S S S S S S S S S S S S S    S  S S S S S S S S S S S S S S S
----------------------------------|-----------------------------------|
--7-9-9-9-9-0-7-9-9-9-9-9-9-9-0-7-|--7h-7-7-7-7-----7-7-7-7-7-7-7-----|
----------------------------------|-------------7-9---------------7-9-|
----------------------------------|-----------------------------------|


  S S S S S S S S S S S S S S S S    S S S S S S S S S S S Q    S
----------------------------------|-------------------------------|
--5-5-5-5-5-----5-5-5-5-5-5-5-5-5-|-------------------------------|
------------5-7-------------------|--5-5-5-5-5-5-5----------------|
----------------------------------|----------------5-5-5-5-0----5-|


  S S S S S S S S S S S S S S S S    S  S S S S S S S S S S S S S S S
----------------------------------|-----------------------------------|
--7-9-9-9-9-0-7-9-9-9-9-9-9-9-0-7-|--7h-7-7-7-7-----7-7-7-7-7-7-7-----|
----------------------------------|-------------7-9---------------7-9-|
----------------------------------|-----------------------------------|


  S S S S S S S S S S S S S S S S    S S S S S S S S S S S Q    S
----------------------------------|-------------------------------|
--5-5-5-5-5-----5-5-5-5-5-5-5-5-5-|-------------------------------|
------------5-7-------------------|--5-5-5-5-5-5-5----------------|
----------------------------------|----------------5-5-5-5-0----L-|


  S S S S S S S S S S S S S S S S    S  S S S S S S S S S S S S S S S
----------------------------------|-----------------------------------|
--7-9-9-9-9-0-7-9-9-9-9-9-9-9-0-7-|--7h-7-7-7-7-----7-7-7-7-7-7-7-----|
----------------------------------|-------------7-9---------------7-9-|
----------------------------------|-----------------------------------|


  S S S S S S S S S S S S S S S S    S S S S S S S S S S S S S S S S
----------------------------------|----------------------------------|----|----|
--5-5-5-5-5-----5-5-5-5-5-5-5-5-5-|----------------------------------|----|----|
------------5-7-------------------|--5-5-5-5-5-5-5-7-7-7-7-7-7-7-7-7-|----|----|
----------------------------------|----------------------------------|----|----|


             E.   E.   E.   E.   E   E      E.   E.   H        E
----|----|--14---12---------------------|-------------------------|
----|----|------------14---12-----------|------------12-----------|
----|----|----------------------14--12--|--14---12----------------|
----|----|------------------------------|-------------------------|


   S  S  S  S  S  S  S  S  S  S  S  S  S  S  S  S
--14-14-14-12-12-12-------------------------------|
--------------------14-14-14-12-12-12-------------|
--------------------------------------14-14-12-12-|
--------------------------------------------------|


   S  S  S  S  S  S  S  S  S  S  S  S  S  S  S  S
--------------------------------------12-12-11-11-|
--------------------12-12-12-12-12-12-------------|
--14-14-14-12-12-12-------------------------------|
--------------------------------------------------|


   S  S  S  S  S  S  S  S  S  S  S  S  S  S  S  S
--14-14-14-12-12-12-------------------------------|
--------------------14-14-14-12-12-12-------------|
--------------------------------------14-14-12-12-|
--------------------------------------------------|


   S  S  S  S  S  S S S S S S S S S S S    S S S S S S S S S S S S S S S S
----------------------------------------|----------------------------------|
----------------------------------------|--7-7-7-5-5-5---------------------|
--14-14-14-12-12-12-5-5-5-5-5-5-5-5-5-5-|--------------7-7-7-5-5-5---------|
----------------------------------------|--------------------------7-7-5-5-|


  S S S S S S S S S S S S E  E     S S S S S S S S S S S S S S S S
--------------------------------|----------------------------------|
--------------------------------|--7-7-7-5-5-5---------------------|
--------------5-5-5-5-5-5-7--5--|--------------7-7-7-5-5-5---------|
--7-7-7-5-5-5-------------------|--------------------------7-7-5-5-|


  S S S S S S S S S S S S E  E     S S S S S S S S S S S S S S S S
--------------------------------|----------------------------------|
--------------------------------|--7-7-7-5-5-5---------------------|
--------------5-5-5-5-5-5-7--5--|--------------7-7-7-5-5-5---------|
--7-7-7-5-5-5-------------------|--------------------------7-7-5-5-|


  S S S S S S S S S S S S E  E     S S S S S S S S S S S S S S S S
--------------------------------|----------------------------------|
--------------------------------|--7-7-7-5-5-5---------------------|
--------------5-5-5-5-5-5-7--5--|--------------7-7-7-5-5-5---------|
--7-7-7-5-5-5-------------------|--------------------------7-7-5-5-|


  S S S S S S H        E
--------------------------|-------|-------|-------|-------||
--------------------------|-------|-------|-------|-------||
--------------5-----------|-------|-------|-------|-------||
--7-7-7-5-5-5-------------|-------|-------|-------|-------||
comments
We did not receive enough feedback on this tab! Please rate:
print report bad tab
1 2 3 4 5
I want to post or [tab]
guest
You may want to rate the tab now too:
select rating
Please do not post tabs as comments. Select "correction" instead!