Oops, an error
Loading. Please wait.

Heart Of Glass Tab

ver2
ver2

Solo

Whole song

More versions @911Tabs.com
5,699 views 102 this week
3 commentsread comments
1 2 3 4 5
worth learning
x 3
Autoscroll
+/-
esc
set tempo
stop
Contributor
Difficulty
intermediate
WARNING: You are trying to view
                                    content from Ultimate-Guitar.com
                                    in an unauthorized application,
                                    which is prohibited.

                                    Please use an official Ultimate
                                    Guitar Tabs application for iPhone,
                                    iPad or Android to access legitimate
                                    chords, guitar, bass, and drum tabs
                                    from Ultimate-Guitar.com database.

                                    Type "ultimate guitar tabs" in Apple
                                    App Store's or Android Market's
                                    search to find the application.
Title: Heart Of Glass
Artist: Blondie
Album: Parallel Lines
Tempo = 115
Electric Guitar

Legend
L - tied note
x - dead note
h - hammer on/pull off
b - bend
s - slide
~ - vibrato
g - ghost note
> - accentuated note
t - trill
M - palm mute
. - staccato
P - popping (bass)
S - slapping (bass)
+ - tapping
W - wide vibrato
< - fade in
w - whammy bar
= - tremolo picking
v - brush up
^ - brush down
V - pick stroke up
n - pick stroke down

NOTES: Layout is funky but you guys can figure it out. Great song.


E |----------------------------------------------------|
B |----------------------------------------------------|
G |--x--9-----x--9-----x--9-----x--9-----8-------------|
D |--------------------------------------------9-------|
A |----------------------------------------------------|
E |----------------------------------------------------|


----------------------------------------------------|
----------------------------------------------------|
-----9-----x--9-----x--9-----x--9-----9s-11---------|
----------------------------------------------------|
--7-----------------------------------------9-------|
----------------------------------------------------|


----------------------------------------------------|
----------------------------------------------------|
--9--9-----x--9-----x--9-----x--9-----8-------------|
--------------------------------------------9-------|
----------------------------------------------------|
----------------------------------------------------|


----------------------------------------------------|
----------------------------------------------------|
-----9-----x--9-----x--9-----x--9-----9s-11---------|
----------------------------------------------------|
--7-----------------------------------------7-------|
----------------------------------------------------|


----------------------------------------------------|--9----|--9----|
----------------------------------------------------|--9----|--9----|
--9--9-----x--9-----x--9-----x--9-----8-------------|--10---|--9----|
--------------------------------------------9-------|-------|-------|
----------------------------------------------------|-------|-------|
----------------------------------------------------|-------|-------|


----------------------------------------------------|
----------------------------------------------------|
-----9-----x--9-----x--9-----x--9-----8-------------|
--------------------------------------------9-------|
--7-------------------------------------------------|
----------------------------------------------------|


----------------------------------------------------|--9----|--9----|
----------------------------------------------------|--9----|--9----|
-----9-----x--9-----x--9-----x--9-----8-------------|--10---|--9----|
--------------------------------------------9-------|-------|-------|
--7-------------------------------------------------|-------|-------|
----------------------------------------------------|-------|-------|


----------------------------------------------------|
----------------------------------------------------|
-----9-----x--9-----x--9-----x--9-----8-------------|
--------------------------------------------9-------|
--7-------------------------------------------------|
----------------------------------------------------|


----------------------------------------------------|
----------------------------------------------------|
-----9-----x--9-----x--9-----x--9-----9s-11---------|
----------------------------------------------------|
--7-----------------------------------------7-------|
----------------------------------------------------|


----------------------------------------------------|
----------------------------------------------------|
-----9-----x--9-----x--9-----x--9-----8-------------|
--------------------------------------------9-------|
--7-------------------------------------------------|
----------------------------------------------------|


----------------------------------------------------|
----------------------------------------------------|
-----9-----x--9-----x--9-----x--9-----9s-11---------|
----------------------------------------------------|
--7-----------------------------------------7-------|
----------------------------------------------------|


----------------------------------------------------|--9----|--9----|
----------------------------------------------------|--9----|--9----|
--9--9-----x--9-----x--9-----x--9-----8-------------|--10---|--9----|
--------------------------------------------9-------|-------|-------|
----------------------------------------------------|-------|-------|
----------------------------------------------------|-------|-------|


----------------------------------------------------|
----------------------------------------------------|
-----9--------9-----x--9-----x--9-----8-------------|
--------------------------------------------9-------|
--7--------7----------------------------------------|
----------------------------------------------------|


----------------------------------------------------|--9----|--9----|
----------------------------------------------------|--9----|--9----|
-----9-----x--9--------9-----x--9-----8-------------|--10---|--9----|
--------------------------------------------9-------|-------|-------|
--7-----------------7-------------------------------|-------|-------|
----------------------------------------------------|-------|-------|


----------------------------------------------------|
----------------------------------------------------|
-----9-----x--9-----x--9-----x--9-----8-------------|
--------------------------------------------9-------|
--7-------------------------------------------------|
----------------------------------------------------|


----------------------------|--2-----0-------------------|
----------------------------|-----------2----------------|
----------------------------|--2-----1-------------------|
-----2-----4-----5-----6----|-----------2----------------|
----------------------------|-----------------------0----|
--0-----2-----3-----4-------|----------------------------|


--2-----0--------------0----|----------------------------|
-----------2-----------0----|--------0-------------------|
--2-----1--------------1----|-----------1----------------|
-----------2-----------x----|--2-------------------------|
-----------------------x----|-----------2----------------|
-----------------------0----|-----------------------0----|


----------------------------|--2-----0-------------------|
--2-----0-------------------|-----------2----------------|
-----------1----------------|--2-----1-------------------|
--2-----2-------------------|-----------2----------------|
-----------2-----------0----|-----------------------0----|
----------------------------|----------------------------|


--2-----0-------------------|-------|----------------------------|
-----------2----------------|--2----|----------------------------|
--2-----1-------------------|--3----|-----4-----6-----7-----8----|
-----------2----------------|--4----|----------------------------|
----------------------------|--4----|--2-----4-----5-----6-------|
-----------------------2----|--2----|----------------------------|


----------------------------------------------------|
----------------------------------------------------|
-----9-----x--9-----x--9-----x--9-----8-------------|
--------------------------------------------9-------|
--7-------------------------------------------------|
----------------------------------------------------|


----------------------------------------------------|
----------------------------------------------------|
-----9-----x--9--------9-----x--9-----9s-11---------|
----------------------------------------------------|
--7-----------------7-----------------------7-------|
----------------------------------------------------|


----------------------------------------------------|
----------------------------------------------------|
--9--9-----x--9-----x--9-----x--9-----8-------------|
--------------------------------------------9-------|
----------------------------------------------------|
----------------------------------------------------|


----------------------------------------------------|
----------------------------------------------------|
-----9--------9--------9-----x--9-----9s-11---------|
----------------------------------------------------|
--7--------7--------7-----------------------7-------|
----------------------------------------------------|


----------------------------------------------------|--9----|--9----|
----------------------------------------------------|--9----|--9----|
--9--9-----x--9-----x--9-----x--9-----8-------------|--10---|--9----|
--------------------------------------------9-------|-------|-------|
----------------------------------------------------|-------|-------|
----------------------------------------------------|-------|-------|


----------------------------------------------------|
----------------------------------------------------|
-----9-----x--9-----x--9-----x--9-----8-------------|
--------------------------------------------9-------|
--7-------------------------------------------------|
----------------------------------------------------|


----------------------------------------------------|--9----|--9----|
----------------------------------------------------|--9----|--9----|
-----9-----x--9--------9--------9-----8-------------|--10---|--9----|
--------------------------------------------9-------|-------|-------|
--7-----------------7--------7----------------------|-------|-------|
----------------------------------------------------|-------|-------|


----------------------------------------------------|
----------------------------------------------------|
-----9--------9--------9--------9-----8-------------|
--------------------------------------------9s------|
--7--------7--------7--------7----------------------|
----------------------------------------------------|


----------------------------|--2-----0-------------------|
----------------------------|-----------2----------------|
----------------------------|--2-----1-------------------|
-----2-----4-----5-----6----|-----------2----------------|
----------------------------|-----------------------0----|
--0-----2-----3-----4-------|----------------------------|


--2-----0-------------------|----------------------------|
-----------2----------------|--2-----0-------------------|
--2-----1-------------------|-----------1----------------|
-----------2----------------|--2-----2-------------------|
----------------------------|-----------2----------------|
-----------------------0----|-----------------------0----|


----------------------------|--2-----0-------------------|
--2-----0-------------------|-----------2----------------|
-----------1----------------|--2-----1-------------------|
--2-----2-------------------|-----------2----------------|
-----------2-----------0----|-----------------------0----|
----------------------------|----------------------------|


--2-----0-------------------|-------|----------------------------|
-----------2----------------|-------|----------------------------|
--2-----1-------------------|--1L---|--1L----------------1-------|
-----------2----------------|-------|----------------------------|
----------------------------|--2L---|--2L----------------2--0----|
-----------------------0----|-------|----------------------------|


--14----12------------------|--14----12------------|
-----------14---------------|-----------14s--------|
--14----12------------------|--14----12------------|
-----------14---------------|-----------14s--------|
-----------------------0----|----------------------|
----------------------------|-----------------0----|


--9-----7-------------------|--9-----7-------------|
-----------9----------------|-----------9s---------|
--9-----8-------------------|--9-----8-------------|
-----------9----------------|-----------9s---------|
----------------------------|-----------------0----|
-----------------------0----|----------------------|


--14----12------------------|--14----12------------|
-----------14---------------|-----------14s--------|
--14----12------------------|--14----12------------|
-----------14---------------|-----------14s--------|
-----------------------0----|-----------------0----|
----------------------------|----------------------|


--9-----7-------------------|--9-----7-------------------|
-----------9----------------|-----------9--------9s------|
--9-----8-------------------|--9-----8-------------------|
-----------9----------------|-----------9--------9s------|
----------------------------|-----------------------0----|
-----------------------0----|----------------------------|


----------------------------|----------------------------|
--------5-------------------|--------5--------5----------|
--6-----4--6----------------|--6-----4--6-----4--6s------|
--7--------7----------------|--7--------7--------7s------|
-----------------------0----|----------------------------|
----------------------------|-----------------------0----|


----------------------------|----------------------------|
--------12------------------|--------12-------12---------|
--13----11-13---------------|--13----11-13----11-13s-----|
--14-------14---------------|--14-------14-------14s-----|
----------------------------|-----------------------0----|
-----------------------0----|----------------------------|


----------------------------|----------------------------|-------|
--------5-------------------|--------5--------5----------|--2----|
--6-----4--6----------------|--6-----4--6-----4--6-------|--3----|
--7--------7----------------|--7--------7--------7-------|--4----|
-----------------------0----|----------------------------|--4----|
----------------------------|----------------------------|--2----|


----------------------------|----|----|----|----|
----------------------------|----|----|----|----|
-----4-----6-----7-----8----|----|----|----|----|
----------------------------|----|----|----|----|
-----2-----4-----5-----6----|----|----|----|----|
----------------------------|----|----|----|----|


----------------------------------------------------|
----------------------------------------------------|
-----9--------9--------9--------9-----8-------------|
--------------------------------------------9-------|
--7--------7--------7--------7----------------------|
----------------------------------------------------|


----------------------------------------------------|
----------------------------------------------------|
-----9--------9--------9--------9-----9s-11---------|
--------------------------------------------9-------|
--7--------7--------7--------7----------------------|
----------------------------------------------------|


----------------------------------------------------|
----------------------------------------------------|
-----9--------9--------9--------9-----8-------------|
--------------------------------------------9-------|
--7--------7--------7--------7----------------------|
----------------------------------------------------|


----------------------------------------------------|
----------------------------------------------------|
-----9--------9--------9--------9-----9s-11---------|
--------------------------------------------9-------|
--7--------7--------7--------7----------------------|
----------------------------------------------------|


----------------------------------------------------|--9----|--9----|
----------------------------------------------------|--9----|--9----|
-----9--------9--------9--------9-----8-------------|--10---|--9----|
--------------------------------------------9-------|-------|-------|
--7--------7--------7--------7----------------------|-------|-------|
----------------------------------------------------|-------|-------|


----------------------------------------------------|
----------------------------------------------------|
-----9--------9--------9--------9-----8-------------|
--------------------------------------------9-------|
--7--------7--------7--------7----------------------|
----------------------------------------------------|


----------------------------------------------------|--9----|--9----|
----------------------------------------------------|--9----|--9----|
-----9--------9--------9--------9-----8-------------|--10---|--9----|
--------------------------------------------9-------|-------|-------|
--7--------7--------7--------7----------------------|-------|-------|
----------------------------------------------------|-------|-------|


----------------------------------------------------|
----------------------------------------------------|
-----9--------9--------9--------9-----8-------------|
--------------------------------------------9-------|
--7--------7--------7--------7----------------------|
----------------------------------------------------|


----------------------------------------------------|
----------------------------------------------------|
-----9-----x--9-----x--9-----x--9-----8-------------|
--------------------------------------------9-------|
--7-------------------------------------------------|
----------------------------------------------------|


----------------------------------------------------|
----------------------------------------------------|
-----9-----x--9-----x--9-----x--9-----8-------------|
--------------------------------------------9-------|
--7-------------------------------------------------|
----------------------------------------------------|


----------------------------------------------------|
----------------------------------------------------|
-----9-----x--9-----x--9-----x--9-----9s-11---------|
----------------------------------------------------|
--7-----------------------------------------7-------|
----------------------------------------------------|


----------------------------------------------------|
----------------------------------------------------|
-----9--------9-----x--9-----x--9-----8-------------|
--------------------------------------------9-------|
--7--------7----------------------------------------|
----------------------------------------------------|


----------------------------------------------------|
----------------------------------------------------|
-----9-----x--9-----x--9-----x--9-----8-------------|
--------------------------------------------9-------|
--7-------------------------------------------------|
----------------------------------------------------|


----------------------------------------------------|
----------------------------------------------------|
-----9-----x--9-----x--9-----x--9-----8-------------|
--------------------------------------------9-------|
--7-------------------------------------------------|
----------------------------------------------------|


----------------------------------------------------|
----------------------------------------------------|
-----9--x--x--9-----x--9-----x--9-----8-------------|
--------------------------------------------9-------|
--7-------------------------------------------------|
----------------------------------------------------|


----------------------------------------------------|
----------------------------------------------------|
-----9-----x--9-----x--9-----x--9-----8-------------|
--------------------------------------------9-------|
--7-------------------------------------------------|
----------------------------------------------------|


----------------------------------------------------|
----------------------------------------------------|
-----9-----x--9-----x--9-----x--9-----8-------------|
--------------------------------------------9-------|
--7-------------------------------------------------|
----------------------------------------------------|


----------------------------------------------------|
----------------------------------------------------|
-----9-----x--9-----x--9-----x--9-----9s-11---------|
----------------------------------------------------|
--7-----------------------------------------7-------|
----------------------------------------------------|


----------------------------------------------------|
----------------------------------------------------|
--9--9-----x--9-----x--9-----x--9-----8-------------|
--------------------------------------------9-------|
----------------------------------------------------|
----------------------------------------------------|


----------------------------------------------------|
----------------------------------------------------|
-----9-----x--9-----x--9-----x--x--9--9s-11---------|
--------------------------------------------9-------|
--7-------------------------------------------------|
----------------------------------------------------|


----------------------------------------------------|
----------------------------------------------------|
-----9-----x--9-----x--9-----x--9-----8-------------|
--------------------------------------------9-------|
--7-------------------------------------------------|
----------------------------------------------------|


----------------------------------------------------|
----------------------------------------------------|
-----9-----x--9-----x--9-----x--9-----9s-11---------|
--------------------------------------------9-------|
--7-------------------------------------------------|
----------------------------------------------------|


----------------------------------------------------|
----------------------------------------------------|
-----9-----x--9-----x--9-----x--9-----8-------------|
--------------------------------------------9-------|
--7-------------------------------------------------|
----------------------------------------------------|


----------------------------------------------------|
----------------------------------------------------|
-----9-----x--9-----x--9-----x--9-----9s-11---------|
--------------------------------------------9-------|
--7-------------------------------------------------|
----------------------------------------------------|


----------------------------------------------------|
----------------------------------------------------|
-----9-----x--9-----x--9-----x--9-----8-------------|
--------------------------------------------9-------|
--7-------------------------------------------------|
----------------------------------------------------|


--------------------------------------------------------------------------------|
--------------------------------------------------------------------------------|
--------9-----------x-----9-----------x-----9-----------x-----9s----------------|
--------------------------------------------------------------------------------|
--7-----------------------------------------------------------------------------|
--------------------------------------------------------------------------2s-4--|


-----------------------|----------------------------------------------------|
-----------------------|----------------------------------------------------|
-----------------------|-----9-----x--9-----x--9-----x--9-----8-------------|
-----------------------|--------------------------------------------9-------|
---------2-------------|--7-------------------------------------------------|
-----------------------|----------------------------------------------------|


--------------------------------------------------------------------------------|
--------------------------------------------------------------------------------|
--------9-----------x-----9-----------x-----9-----------x-----9s----------------|
--------------------------------------------------------------------------------|
--7-----------------------------------------------------------------------------|
--------------------------------------------------------------------------2s-4--|


-----------------------|----------------------------------------------------|
-----------------------|----------------------------------------------------|
-----------------------|----------------------------------------------------|
-----------------------|-----2-----x--2-----x--2-----x--2-----1-------------|
---------2-------------|--------------------------------------------2-------|
-----------------------|--0-------------------------------------------------|


----------------------------------------------------|
----------------------------------------------------|
----------------------------------------------------|
-----2-----x--2-----x--2-----x--2-----1-------------|
--------------------------------------------2-------|
--0-------------------------------------------------|


--------------------------------------------------------------------------------|
--------------------------------------------------------------------------------|
--------------------------------------------------------------------------------|
--------2-----------------2-----------------2-----------------2-----------------|
--------------------------------------------------------------------------------|
--0-----------------0-----------------0-----------------0-----------------2s-4--|


-----------------------|----------------------------------------------------|
-----------------------|----------------------------------------------------|
-----------------------|----------------------------------------------------|
-----------------------|-----2--------2--------2--------2-----1-------------|
---------2-------------|--------------------------------------------2-------|
-----------------------|--0--------0--------0--------0----------------------|


--------------------------------------------------------------------------------|
--------------------------------------------------------------------------------|
--------------------------------------------------------------------------------|
--------2-----------------2-----------------2-----------------2-----------2s-4--|
--------------------------------------------------------------------------------|
--0-----------------0-----------------0-----------------0-----------------------|


-----------------------|-------|----|----|
-----------------------|-------|----|----|
-----------------------|--1----|----|----|
-----------------------|--2----|----|----|
-----------------------|--2----|----|----|
---------0-------------|--0----|----|----|
comments
We did not receive enough feedback on this tab! Please rate:
1 2 3 4 5
3 comments total.
0 reply
neostrifeX wrote on March 13 2011, 07:07 pm

The 001xx0 you'll see is supposed to be a 0 on the low E string, my bad.

0 reply
CAPTAINBEEFHEAR wrote on April 16 2011, 10:24 am

sorry mate but this is dire

0 reply
neostrifeX wrote on July 2 2011, 06:12 am

Dire how so? Aside from the admittedly horrible layout scheme, I'm positive the notes are correct. Play along to the song, I'm sure it'll be spot on.

I want to post or [tab]
guest
You may want to rate the tab now too:
select rating
Please do not post tabs as comments. Select "correction" instead!