Oops, an error
Loading. Please wait.

Consent To Treatment Tab

598 views 1 this week
no commentswrite comment
1 2 3 4 5
accurate
x 2
Autoscroll
+/-
esc
set tempo
stop
Contributor
Hey! There's an official Ultimate Guitar app which is ideal
for learning songs when you're away from computer. Get the app
WARNING: You are trying to view
                                    content from Ultimate-Guitar.com
                                    in an unauthorized application,
                                    which is prohibited.

                                    Please use an official Ultimate
                                    Guitar Tabs application for iPhone,
                                    iPad or Android to access legitimate
                                    chords, guitar, bass, and drum tabs
                                    from Ultimate-Guitar.com database.

                                    Type "ultimate guitar tabs" in Apple
                                    App Store's or Android Market's
                                    search to find the application.
Blue October
Consent To Treatment

Note - Not all tabs are of my making.

Track 01 - Retarded Disfigured Clown
Track 02 - Independently Happy
Track 03 - James - Credited to Unregistered
Track 04 - HRSA - Credited to BranD
Track 05 - Breakfast After 10 - Credited to matthewsixteen2
Track 06 - Balance Beam
Track 07 - Holler
Track 08 - Schizophrenia - Credited to Unregistered
Track 09 - Drop
Track 10 - Conversation Via Radio - Credited to AggiePhil
Track 11 - Angel
Track 12 - Libby, I'm Listening
Track 13 - Amnesia
Track 14 - The Answer

Track 01 - Retarded Disfigured Clown - no guitar

Track 02 - Independently Happy

Intro:
E---------|
B---------|
G-5~------|
D-5~---5~-|
A-3~---5~-|
E------3~-|

Verse:
E-------------------|
B-------------------|
G-----------5~------|
D-5~---5~---5~---5~-|
A-5~---5~---3~---5~-|
E-3~---3~--------3~-|

Pre-Chorus: Well there's an empty hope chest...
E---------|
B---------|
G-5~------|
D-5~---5~-|
A-3~---5~-|
E------3~-|

Chorus:
E-------------------------------------------------|
B-------------------------------------------------|
G-----------------------------------555555555555--|
D-55555555555555555555555555555555555555555555555~|
A-55555555555555555555555555555555553333333333335~|
E-3333333333333333333333333333333333------------3~|

Solo:
E--------------------------------------|
B-13-12-10/8-1313-12-10/8-1313-12-10/8-|
G--------------------------------------|
D--------------------------------------|
A--------------------------------------|
E--------------------------------------|

E---------------------------------|
B-13-12-10/8-1313-12-10/8-8/10-10-|
G---------------------------------|
D---------------------------------|
A---------------------------------|
E---------------------------------|

Solo: Rhythm guitar
E---------------------------------|
B---------------------------------|
G---------55555555----------------|
D-55555555555555552222222233333333|
A-55555555333333332222222233333333|
E-33333333--------0000000011111111|

Last Verse:
E----------------------------------|
B----------8b9r8b9-8b9r8b9---------|
G-2-2-2p0------------------5~------|
D--------------------------5~---5~-|
A--------------------------3~---5~-|
E-------------------------------3~-|

Track 03 - James - Credited to Unregistered

Intro:
Gtr 1
e|-----------------------------------------------------------------------|
B|-----------------------------------------------------------------------|
G|-9--9-9-9-/10-9--9--9-9-9-9-/10-9---9--9-9-9-/10-9~-10\-9--9-9-9-/12~--|
D|-----------------------------------------------------------------------|x4
A|-7--7-7-7-/8--7--7--7-7-7-7-/8--7---7--7-7-7-/8--7~-8\--7--7-7-7-/10~--|
E|-----------------------------------------------------------------------|

First part of Verse is just bass...

Verse 0:40
Gtr 1
e|------------------------------------------------|
B|------------------------------------------------|
G|------------------------------------------------|
D|-10~---9~---12~---10~---10~---7~6~---6~----7~---|
A|------------------------------------------------|
E|------------------------------------------------|

Chorus:
Gtr 1
e|----------------------------|
B|----------------------------|
G|----------------------------|
D|----------------------------|x8
A|-----7-5-7-5---5------------|
E|--0----------7---7-6-5-0-3~-|

Verse 1:40
Gtr 1
e|------------------------------------------------|
B|------------------------------------------------|
G|------------------------------------------------|
D|-10~---9~---12~---10~---10~---7~6~---6~----7~---|
A|------------------------------------------------|
E|------------------------------------------------|

Chorus:
Gtr 1
e|----------------------------|
B|----------------------------|
G|----------------------------|
D|----------------------------|x8
A|-----7-5-7-5---5------------|
E|--0----------7---7-6-5-0-3~-|

Then
Gtr 1
e|----------------------------------------------|
B|-13~-12~--10~--10~--------------------9~-10~--|
G|-------------------12~-10~-9~--9~-11~---------|
D|----------------------------------------------|
A|----------------------------------------------|
E|----------------------------------------------|

Back to Intro
Gtr 1
e|-----------------------------------------------------------------------|
B|-----------------------------------------------------------------------|
G|-9--9-9-9-/10-9--9--9-9-9-9-/10-9---9--9-9-9-/10-9~-10\-9--9-9-9-/12~--|
D|-----------------------------------------------------------------------|x4
A|-7--7-7-7-/8--7--7--7-7-7-7-/8--7---7--7-7-7-/8--7~-8\--7--7-7-7-/10~--|
E|-----------------------------------------------------------------------|

For this part just rest your fingers on the fret

Bridge/Instrum.
Gtr 1
e|-------------------------------------------------|
B|-xxxxxxxxxxxx-9-9-9-9-9-xxxxxxxxxxxx-9-9-9-9-9-9-|
G|-xxxxxxxxxxxx-9-9-9-9-9-xxxxxxxxxxxx-9-9-9-9-9-9-|
D|-xxxxxxxxxxxx-9-9-9-9-9-xxxxxxxxxxxx-9-9-9-9-9-9-|x2
A|-777777777777-9-9-9-9-9-777777777777-9-9-9-9-9-9-|
E|-77777777777777777777777777777777777777777777777-|
  p.m.............................................
"James, How I Love to Hate You!!!"
Chorus:
Gtr 1
e|----------------------------|
B|----------------------------|
G|----------------------------|
D|----------------------------|x8
A|-----7-5-7-5---5------------|
E|--0----------7---7-6-5-0-3~-|

Then kind of a siren thing... could be played
Chorus:
Gtr 1
e|----------------------------|
B|----------------------------|
G|-4/slide~~~~~~9\slide~~~~~4-|
D|----------------------------|
A|----------------------------|
E|----------------------------|

Outro:
Gtr 1
e|-----------------------------------------------------------------------|
B|-----------------------------------------------------------------------|
G|-9--9-9-9-/10-9--9--9-9-9-9-/10-9---9--9-9-9-/10-9~-10\-9--9-9-9-/12~--|
D|-----------------------------------------------------------------------|x4
A|-7--7-7-7-/8--7--7--7-7-7-7-/8--7---7--7-7-7-/8--7~-8\--7--7-7-7-/10~--|
E|-----------------------------------------------------------------------|

Gtr 1
e|----|
B|----|
G|-9~-|
D|----|
A|-7~-|
E|----|

Track 04 - HRSA - Credited to BranD

Intro:									0:16
e|----------------------------------------------------------------------------|
B|----------------------------------------------------------------------------|
G|---5-12--12-5----5--12-12-5----5--12--5-12---5--12--12-5--------------------|
D|---x--x---x-x----x--x--x--x----x--x---x-x----x--x---x-x---------------------|
A|---3/10--10\3----3/10--10\3----3/10--10\3----3/10--10\3---------------------|
E|----------------------------------------------------------------------------|

									0:25
e|----------------------------------------------------------------------------|
B|----------------------------------------------------------------------------|
G|---4-5-5555555--5-7-7777777--7-9-9999999--9-10-9-7--------------------------|
D|---x-x-xxxxxxx--x-x-xxxxxxx--x-x-xxxxxxx--x-x-x-x---------------------------|
A|---2/3-3333333--3/5-5555555--5/7-7777777--7-8-7-5---------------------------|
E|----------------------------------------------------------------------------|

Admitted at 22...							0:41
e|--------------------x-x-x-x---- x-x-x-x ------------------------------------|
B|--------------------x-x-x-x---- x-x-x-x ------------------------------------|
G|--------------------x-x-x-x---- x-x-x-x ------------------------------------|
D|--------------------x-x-x-x---- x-x-x-x ------------------------------------|
A|-3-2-3--3--3-2-3----x-x-x-x---- x-x-x-x-------------------------------------|
E|--------------------x-x-x-x---- x-x-x-x ------------------------------------|

A bee sting straight...							0:51
e|----------------------------------------------------------------------------|
B|----------------------------------------------------------------------------|
G|--4-4-5--5555555--5-7--7777777--7-5-5555555--5-5--5555----------------------|
D|--x-x-x--xxxxxxx--x-x--xxxxxxx--x-x-xxxxxxx--x-x--xxxx----------------------|
A|--2-2/3--3333333--3/5--5555555--5\3-3333333--3-3--3333----------------------|
E|----------------------------------------------------------------------------|

									0:59
e|---------------------------------------------------------------------------|
B|---------------------------------------------------------------------------|
G|--4-5--5555555--5-7--7777777--7-5-5555555--5-------------------------------|
D|--x-x--xxxxxxx--x-x--xxxxxxx--x-x-xxxxxxx--x-------------------------------|
A|--2/3--3333333--3/5--5555555--5\3-3333333--3-------------------------------|
E|---------------------------------------------------------------------------|

									1:07
e|---------------------------------------------------------------------------|
B|---------------------------------------------------------------------------|
G|--5--12-555555-5555--12-5--------------------------------------------------|
D|--x--x--xxxxxx-xxxx--x--x--------------------------------------------------|
A|--3/10--333333-3333--10\3--------------------------------------------------|
E|---------------------------------------------------------------------------|

To group for the show..						1:16
e|---------------------------------------------------------------------------|
B|---------------------------------------------------------------------------|
G|--4-5-5555555--5-7-7777777--7-9-9999999--9-10-9-7--------------------------|
D|--x-x-xxxxxxx--x-x-xxxxxxx--x-x-xxxxxxx--x-x--x-x--------------------------|
A|--2/3-3333333--3/5-5555555--5/7-7777777--7-8--7-5--------------------------|
E|---------------------------------------------------------------------------|

Knock knock    1:31  Learned quick...		         		1:42
e|---------------------------------------------------------------------------|
B|---------------------------------------------------------------------------|
G|--5-4-5--5--5-4-5--4-4-5--5555555--5-7--7777777--7-5-5555555--5-5--5555----|
D|--x-x-x--x--x-x-x--x-x-x--xxxxxxx--x-x--xxxxxxx--x-x-xxxxxxx--x-x--xxxx----|
A|--3-2-3--3--3-2-3--2-2/3--3333333--3/5--5555555--5\3-3333333--3-3--3333----|
E|---------------------------------------------------------------------------|

Screaming voices							1:50
e|---------------------------------------------------------------------------|
B|---------------------------------------------------------------------------|
G|--4-5--5555555--5-7--7777777--7-5-5555555--5-------------------------------|
D|--x-x--xxxxxxx--x-x--xxxxxxx--x-x-xxxxxxx--x-------------------------------|
A|--2/3--3333333--3/5--5555555--5\3-3333333--3-------------------------------|
E|---------------------------------------------------------------------------|

Breathing, they...							2:10
e|---------------------------------------------------------------------------|
B|---------------------------------------------------------------------------|
G|--4-5-5--4-5-5555555--5-7-7777777--7-9-9999999--9-10-10-10-10-10-10-10-10--|
D|--x-x-x--x-x-xxxxxxx--x-x-xxxxxxx--x-x-xxxxxxx--x-x---x-x-x--x--x--x--x----|
A|--2-3-3--2/3-3333333--3/5-5555555--5/7-7777777--7/8---8-8-8--8--8--8--8----|
E|---------------------------------------------------------------------------|

				     2:16	 2:28
e|---------------------------------------------------------------------------|
B|---------------------------------------------------------------------------|
G|--4-5-5555555--5-7-7777777--7-9-9999999---------7-5------------------------|
D|--x-x-xxxxxxx--x-x-xxxxxxx--x-x-xxxxxxx---------x-x------------------------|
A|--2/3-3333333--3/5-5555555--5/7-7777777---------5/3------------------------|
E|---------------------------------------------------------------------------|

At all...								2:42
e|---------------------------------------------------------------------------|
B|---------------------------------------------------------------------------|
G|--4-4-5--5555555--5-7--7777777--7-5-5555555--5-5--5555---------------------|
D|--x-x-x--xxxxxxx--x-x--xxxxxxx--x-x-xxxxxxx--x-x--xxxx---------------------|
A|--2-2/3--3333333--3/5--5555555--5\3-3333333--3-3--3333---------------------|
E|---------------------------------------------------------------------------|

All...									2:50
e|-------------------------------------------------------------------------|
B|-------------------------------------------------------------------------|
G|--4-5--5555555--5-7--7777777--7-5-5555555--5-----------------------------|
D|--x-x--xxxxxxx--x-x--xxxxxxx--x-x-xxxxxxx--x-----------------------------|
A|--2/3--3333333--3/5--5555555--5\3-3333333--3-----------------------------|
E|-------------------------------------------------------------------------|

									3:06
e|-------------------------------------------------------------------------|
B|-------------------------------------------------------------------------|
G|-------------------------------------------------------------------------|
D|-------------------------------------------------------------------------|
A|--7b-5b-3b--3-5p-3---3-5--7b-5b-3b--3-5p-3-------------------------------|
E|-------------------------------------------------------------------------|

								end
e|-------------------------------------------------------------------------|
B|-------------------------------------------------------------------------|
G|-------------------------------------------------------------------------|
D|-------------------------------------------------------------------------|
A|--3-5-7-5-3--3--3-5-7-5-3--3--3-5-7~______-------------------------------|
E|-------------------------------------------------------------------------|

Track 05 - Breakfast After 10 - Credited to matthewsixteen2

e--3--3--0--]   e-----------0--]
B--3--3--0--]   B-----------0--]
G--4--3--0--]   G-----------0--] <-- this is the walk down to Em played
D--5--4--2--]   D-----------2--]  at the begining through to the first
A--5--5--2--]   A-----------2--]       chorus.
E--3--5--0--]   E---0-2-0-0-0--]
   G  D  Em

The intro/verse up until the first chorus is played in barr chords.  If you know
the song, then you know the pattern for strumming.

(Verse1)
                                    G
White kitchen walls with a thousand windows.
                           D
You turn on Winston in the den.
                               G        walk down to Em
And I'm still asleep but I can hear the piano.
                              D
When you make breakfast after ten.
                               G
And I smell the coffee on your fingers.
                                 D
I still smell the perfume in the bed.
                            G         walk down to Em
Crushed linen roses are on everything.
                         D
And your still inside my head.

(Chorus) {from this point on the rest of the song is played with open chords}
                                     G
You gotta make her know how it feels to miss you.
                            D
Let her know your swapping sides.
                                Em            G
You're not the one with all the problems.
                            D
You're the one with all the pride.
                                  G
So just pick your head up boy and walk away.
                               D
Walk the coolest walk that you know.
                                     Em   G             D
'Cause in a month or two she'll call you... hang up the phone.

(Verse 2) same chord progression as Chorus

And I hope she knows I've got this memory.

That won't ever seem to break or bend.

A thick lock and sheet rock is on my windows in the kitchen.

I don't think I'll ever take'em down again.  No!

And I've learned alot from all of these break up and make ups and F#@K ups and fakes ups!

Things that I wis you would comprehend, yeah, comprehend!

But for now I'll lace up these wing tipped (converse) shoes boys

And I'll go and have breakfast with my good friends.

(chorus again)

the break is played  G  A   G   A   D   Em   G   D

(Chorus 2)

You gotta make her know how it feels to miss you.

Let her know your swapping spit.

You're not the one with all the problems.

She's the one that's full of sh@t!

So just pick your head up boy and walk away.

Walk the coolest walk that you know.

'Cause in a month or two she'll call you... hang up the phone.

Track 06 - Balance Beam

Verse:
E------------------------------------------------------------------|
B------------------------------------------------------------------|
G-----------------7777777555555555----------------7777777777777777-|
D-5555555555555555777777755555555522222222222222227777777777777777-|
A-5555555555555555555555533333333322222222222222225555555555555555-|
E-3333333333333333----------------0000000000000000-----------------|

Chorus:
E---------------------------------------|
B---------------------------------------|
G-----5-------7-7-5-55-5-----5-------7~-|
D-5---5---5---7-7-5-55-5-5---5---5---7~-|
A-5---3---5---5-5-3-33-3-5---3---5---5~-|
E-3-------3--------------3-------3------|

Outro: Continuous Strum
E--|
B--|
G--|
D-5|
A-5|
E-3|

Track 07 - Holler

Intro:
e------------------------------------------------|
b------------------------------------------------|
g------------------------------------------------|
d------------------------------------------------|
a------------------------------------------------|
e--0--0--3--0--3--0--3--0-----0--3--0--3--0--5---|

Verse:
e-----------|
b-----------|
g-----------|
d-----------|
a-----------|
e--0--5/0---|

Chorus:
e------------------|
b------------------|
g------7---5---5---|
d--5---7---5---5---|
a--5---5---3---3---|
e--3---------------|
hit each chord 4 times

Break:
e------------------------------------------|
b------------------------------------------|
g------------------------------------------|
d------------------------------------------|
a------------------------------------------|
e--0--0--0--0--3--0--0--0--0--0--0--0--5---|
pick that very fast

Outro:
e---------------------------|
b---------------------------|
g---------------------------|
d---------------------------|
a---------------------------|
e--0--0--3--0--3--0--3--0---|

Intro 4x
Verse 3x
Chorus 2x
Intro 4x
Verse 3x
Chorus 2x
Intro 4x
Chorus 2x
Break 11x
Chorus 2x
Intro 2x
Outro 3x

/=slide down

Track 08 - Schizophrenia - Credited to Unregistered

(Intro)
Em C G D (x2)


(Verse 1)
Em		C
A silver plated numbing gum
G 		  D
And jesus resting on my thumb
A hard to reach malaria
I've got the mood that seems to scare ya
And I'm paranoid self destroyed
Believe me Lord I'm sorry
I've got the mood that seems to bury ya
I've got the nightmare called...
Schizophrenia


(Chorus)
Em	C
I cry I cry and I don't know why
    G		     D
The fever becomes my home
Em      C
I cry I cry and I don't know why
    G		     D
The fever becomes my home
Em
Becomes my home
Em	   C      G     D
Becomes myyyyyyyyyyyyy hooooooooome


(Verse 2)
And I love it when you're holding me
You have a gentle way of calming
I haven't felt that way since 1993
When my mother held me
I bet you're waiting for a long sob story
Of how I was mistreated again
No, 'cause no I wasn't built that way
I was strong but desperately brave
And I didn't mean to scare ya...
Schizophrenia

(Repeat chorus twice and fade out)

Track 09 - Drop

Verse:
E------------------------------------------------------------------|
B------------------------------------------------------------------|
G------------------44444444444444442222222222222222----------------|
D-2222222222222222244444444444444442222222222222222222xxxx2222xxxxx
A-2222222222222222222222222222222220000000000000000222xxxx2222xxxxx
E-00000000000000000--------------------------------000xxxx0000xxxxx

Chorus:
E----------|
B----------|
G-6~-4~-2~-|
D-6~-4~-2~-|
A-4~-2~-0~-|
E----------|

Break:
E------------------------------------------------------------------|
B------------------------------------------------------------------|
G-2222222244444444--------666666662222222244444444--------66666666-|
D-2222222244444444222222226666666622222222444444442222222266666666
A-0000000022222222222222224444444400000000222222222222222244444444
E-----------------00000000------------------------00000000--------

E-----------------|
B-----------------|
G-2222222244444444
D-2222222244444444
A-0000000022222222
E-----------------

Track 10 - Conversation Via Radio - Credited to AggiePhil

Intro & Verses ("You must be broken by the thousand ways of wasting time...")
(Pick & Strum)
• "x" denotes a mute
• end verses with Cmaj chord & let ring

e|-------x-----x----------x----------x----------x----------x--------|
b|-------1-----1----------3----------0----------3----------1--------|
g|-------2-----2----------4----------0------0---0-0--------2--------|
D|-------2-----2----------4----------2--------0-0---0------2--------|
A|----0x-0-----0----------0----------3----------2-----2-0x-0--------|
E|-------x-----x----------x----------x----------3----------x--------|
---------Am---Am--slide--Bm/A------Cmaj7--------G----------Am-------|

"I'm cramped and crawling from under the bed and I..."
(Strum)

e|-------x-------x-------x-------x--------|
b|-------1-------3-------3-------0--------|
g|-------0-------2-------0-------0--------|
D|-------2-------0-------0-------2--------|
A|-------3-------0-------2-------2--------|
E|-------x-------x-------3-------x--------|
---------C-------D-------G-------Em-------|

"But now I just can't seem to be preoccupied..."
(Strum)

e|-------x-------x-------x-------x--------|
b|-------1-------1-------1-------1--------|
g|-------0-------2-------0-------2--------|
D|-------2-------2-------2-------2--------|
A|-------3-------0-------3-------0--------|
E|-------x-------x-------x-------x--------|
---------C-------Am------C-------Am-------|

Repeat Verse

"Cause God made this night for me..."
(Single strum all but Am)

e|-------x-------x-------x-------x--------|
b|-------3-------0-------1-------1--------|
g|-------0-------0-------0-------2--------|
D|-------0-------2-------2-------2--------|
A|-------2-------2-------3-------0--------|
E|-------3-------x-------x-------x--------|
---------G-------Em------C-------Am-------|

"But this year's the year I write to be..."
(Strum)

e|-------x----------x----------x----------x--------|
b|-------3----------0----------1----------1--------|
g|-------0----------0----------0----------2--------|
D|-------0----------2----------2----------2--------|
A|-------2----2-3-2-2----2-2-2-3----------0--------|
E|-------3----------x----------x----------x--------|
---------G----------Em---------C----------Am-------|

Repeat Verse

Track 11 - Angel

Intro:
e------------------|
b------------------|
g------------------|
d--2---5---9---4---|
a--2---5---9---4---|
e--0---3---7---2---|

e------------------------|
b------------------------|
g------------------------|
d--2---5---9---4--4--4---|
a--2---5---9---4--4--4---|
e--0---3---7---2--2--2---|

Verse 1: ()=1st time only
e--------------(3)----(3)----(3)-|
b--------------(3)----(3)----(3)-|
g--------------(3)----(3)----(3)-|
d--12--4--9--5----(5)-----(5)----|
a--12--4--9--5----(5)-----(5)----|
e--10--2--7--3----(3)-----(3)----|

Chorus:
e----------------|
b----------------|
g----------------|
d--12--4--9--5---|
a--12--4--9--5---|
e--10--2--7--3---|

Verse 2: same as verse 1

Break:
e---------------------------|
b---------------------------|
g---------------------------|
d--2--5--5--7--9--4--4--4---|
a--2--5--5--7--9--4--4--4---|
e--0--3--3--5--7--2--2--2---|

Verse 3:
e----------------------|
b----------------------|
g----------------------|
d--12--12----12---12---|
a--12--12----12---12---|
e--10--10----10---10---|

Outro: upstroke
e------|
b------|
g--4---|
d--4---|
a--2---|
e------|

Intro-----2x
Verse 1---4x
Chorus----2x
Verse 2---2x
Chorus----2x
Break-----3x
Verse 3---1x
Chorus----2x
Outro-----1x

Track 12 - Libby I'm Listening

Verse:
E----------------------------------|
B----------------------------------|
G----------------------------------|
D-2--5552--2--5552--2--5552-5--3-5-|
A-2--5552--2--5552--2--5552-5--3-5-|
E-0--3330--0--3330--0--3330-3--1-3-|

Chorus:
E-------------|
B-------------|
G----7--------|
D-5--7--9--10-|
A-5--5--9--10-|
E-3-----7--8--|

Break:
E-----------------------------------|---------|
B-----------------------------------|---------|
G-----------------------------------|---------|
D-2--5552--2--5552--2--5552-5-------|-7~---2~-|
A-2--5552--2--5552--2--5552-5-------|-7~---2~-|
E-0--3330--0--3330--0--3330-0--3330-|-5~---0~-|

Track 13 - Amnesia

Verse: The 7's on the G string fade
E------------------|
B------------------|
G-7-7-7------7-7-7-|
D-7-7--------7-7---|
A-5-5--------5-5---|
E------------------|

Pre-Chorus:
E-----------------------------------|
B-----------------------------------|
G-2~-4~-2~-4~-2~-4~-2-222-222~-222~-|
D-2~-4~-2~-4~-2~-4~-2-222-222~-222~-|
A-0~-2~-0~-2~-0~-2~-0-000-000~-000~-|
E-----------------------------------|

Chorus:
E-------------------|
B-------------------|
G-7~---2~---4~------|
D-7~---2~---4~---5~-|
A-5~---0~---2~---5~-|
E----------------3~-|

2nd Pre-Chorus:
E-----------------------|
B-----------------------|
G-2~-4~-2-222-222~-222~-|
D-2~-4~-2-222-222~-222~-|
A-0~-2~-0-000-000~-000~-|
E-----------------------|

Track 14 - The Answer

Note - The song is two guitars on top
of each other so it's pretty hard to figure
out but I did my best and this is a rough
sketch but the basis of the song.

Pretty much the whole song:
E-------0------0-------0------0--------|
B----------1------1-------1------1---0-|
G-----2------2------2-------2------2---|
D---2----------------------------------|
A-0------------------------------------|
E--------------------------------------|

E-------0--------------0--------|
B----------0---0----------0---0-|
G------------0--------------0---|
D-----2--------------2----------|
A---2--------------2------------|
E-0--------------0--------------|

E---------3-------------3--------|
B-----------3--------------3---0-|
G-------0-----0--------------0---|
D-----0---------0-----0----------|
A---2---------------2------------|
E-3---------------3--------------|

E-------0---------------0--------|
B----------1---1-----------1---1-|
G-----2------2-------2-------2---|
D---2--------------2-------------|
A-0--------------0---------------|
E--------------------------------|

Understand/But in my head/Etc:
E-------0--------------0--------|
B----------1---1----------1---1-|
G-----0------0-------0------0---|
D---2--------------2------------|
A-3--------------3--------------|
E-------------------------------|
2x

E-------0--------------0--------|
B----------1---1----------1---1-|
G-----2------2-------2------2---|
D---2--------------2------------|
A-0--------------0--------------|
E-------------------------------|
2x

Questions?
Email at cory.roesch@yahoo.com
comments
We did not receive enough feedback on this tab! Please rate:
print report bad tab
1 2 3 4 5
I want to post or [tab]
guest
You may want to rate the tab now too:
select rating
Please do not post tabs as comments. Select "correction" instead!