Oops, an error
Loading. Please wait.

History For Sale Tab

839 views 3 this week
no commentswrite comment
1 2 3 4 5
excellent!
x 1
Autoscroll
+/-
esc
set tempo
stop
Contributor
Hey! There's an official Ultimate Guitar app which is ideal
for learning songs when you're away from computer. Get the app
WARNING: You are trying to view
                                    content from Ultimate-Guitar.com
                                    in an unauthorized application,
                                    which is prohibited.

                                    Please use an official Ultimate
                                    Guitar Tabs application for iPhone,
                                    iPad or Android to access legitimate
                                    chords, guitar, bass, and drum tabs
                                    from Ultimate-Guitar.com database.

                                    Type "ultimate guitar tabs" in Apple
                                    App Store's or Android Market's
                                    search to find the application.
Blue October
History For Sale

Note - Not all the tabs are of my making.

Track 01 - Ugly Side
Track 02 - Clumsy Card House - Credited to AggiePhil
Track 03 - Razorblade
Track 04 - Calling You
Track 05 - Chameleon Boy - Credited to AggiePhil
Track 06 - Sexual Powertrip (One Big Lie) Bla Bla
Track 07 - A Quiet Mind - Credited to AggiePhil
Track 08 - 3 Weeks, She Sleeps
Track 09 - Inner Glow - Credited to AggiePhil
Track 10 - Somebody
Track 11 - Come In Closer
Track 12 - Amazing - Credited to Unregistered

Track 01 - Ugly Side

Verse: 2x
E-------------------------------------------------------------|
B-33xxxx33xxxx3~-33xxxx33xxxx3~-22xxxx22xxxx2~-22xxxx22xxxx2~-|
G-44xxxx44xxxx4~-44xxxx44xxxx4~-22xxxx22xxxx2~-22xxxx22xxxx2~-|
D-44xxxx44xxxx4~-44xxxx44xxxx4~-22xxxx22xxxx2~-22xxxx22xxxx2~-|
A-22xxxx22xxxx2~-22xxxx22xxxx2~-00xxxx00xxxx0~-00xxxx00xxxx0~-|
E-------------------------------------------------------------|

E------------------------------|
B-33xxxx33xxxx3~-00xxxx00xxxx0~|
G-00xxxx00xxxx0~-11xxxx11xxxx1~|
D-00xxxx00xxxx0~-22xxxx22xxxx2~|
A-22xxxx22xxxx2~-22xxxx22xxxx2~|
E-33xxxx33xxxx3~-00xxxx00xxxx0~|

E------------------------------|
B-33xxxx33xxxx3~-33xxxx33xxxx3~|
G-44xxxx44xxxx4~-44xxxx44xxxx4~|
D-44xxxx44xxxx4~-44xxxx44xxxx4~|
A-22xxxx22xxxx2~-22xxxx22xxxx2~|
E------------------------------|

Chorus:
E-------------|
B-------------|
G---7-2-------|
D-5-7-2-5-4-2-|
A-5-5-0-5-4-2-|
E-3-----3-2-0-|

Verse: 2x
E-------------------------------------------------------------|
B-33xxxx33xxxx3~-33xxxx33xxxx3~-22xxxx22xxxx2~-22xxxx22xxxx2~-|
G-44xxxx44xxxx4~-44xxxx44xxxx4~-22xxxx22xxxx2~-22xxxx22xxxx2~-|
D-44xxxx44xxxx4~-44xxxx44xxxx4~-22xxxx22xxxx2~-22xxxx22xxxx2~-|
A-22xxxx22xxxx2~-22xxxx22xxxx2~-00xxxx00xxxx0~-00xxxx00xxxx0~-|
E-------------------------------------------------------------|

E------------------------------|
B-33xxxx33xxxx3~-00xxxx00xxxx0~|
G-00xxxx00xxxx0~-11xxxx11xxxx1~|
D-00xxxx00xxxx0~-22xxxx22xxxx2~|
A-22xxxx22xxxx2~-22xxxx22xxxx2~|
E-33xxxx33xxxx3~-00xxxx00xxxx0~|

1st time thru
E------------------------------|
B-33xxxx33xxxx3~-33xxxx33xxxx3~|
G-44xxxx44xxxx4~-44xxxx44xxxx4~|
D-44xxxx44xxxx4~-44xxxx44xxxx4~|
A-22xxxx22xxxx2~-22xxxx22xxxx2~|
E------------------------------|

2nd time thru
E---------------------------|
B---------------------------|
G-4-4----4-4----4-4----4-4--|
D-4-4----4-4----4-4----4-4--|
A-2-2----2-2----2-2----2-2--|
E---------------------------|

Chorus:
E-----------------------------|
B-----------------------------|
G----7~-2~----4~-7~-2~--------|
D-5~-7~-2~-5~-4~-7~-2~-5~-4-2-|
A-5~-5~-0~-5~-2~-5~-0~-5~-4-2-|
E-3~-------3~----------3~-2-0-|

Break:
E-----------------------------------|
B-----------------------------------|
G-4-4---4-4---4----2~-7-6-4~-7-6-4~-|
D-4-4---4-4---4-5~-2~-7-6-4~-7-6-4~-|
A-2-2---2-2---2-5~-0~-5-4-2~-5-4-2~-|
E---------------3~------------------|

Outro: 2x
E---------------|
B-3-----2-----3-|
G-0-----2-----4-|
D-0-----2-----4-|
A-2-----0-----2-|
E-3-------------|

then

E------------------2-|
B-3-----2--------3-3-|
G-0-----2-------4--4-|
D-0-----2------4---4-|
A-2-----0-----2----2-|
E-3------------------|

Track 02 - Clumsy Card House - Credited to AggiePhil--phil@phildorsett.com

Violin Intro
(Palm mute and pick near bridge)
(Kind of Finger: C, Em, C)

e|------------------------------------------------------------------|
b|---------1-----1---0-------------1-----1---5-0-0------------------|
g|-----------0-----0---0--------------0-----0-------0---------------|
D|-------------2---------0-2-------------2-------------0-2----------|
A|-------3-------------------2-3-2-------------------------3--------|
E|---------------------------------3--------------------------------|

"By the way, by your side I'll stay..."
(Finger: C)

e|--------------------------------------------------|
b|---------1-1x-0-----------1-1x-5x-0x-0------------|
g|--------------------------------------------------|
D|----------------2-2-2-2----------------2-2--------|
A|-------3----------------3-------------------------|
E|--------------------------------------------------|

"Here I'm standing up..."

e|----------------------------------------------|
b|---------5---5-----------5---5----------------|
g|-----------------2---------------2------------|
D|-------3---3---3---3-3-3---3---3---3-3--------|
A|----------------------------------------------|
E|----------------------------------------------|

"And all our kids could play..."
(Finger: G)

e|----------------------------------------------------|
b|-------------0---------0---------0---------0--------|
g|---------------0---------0---------0----------------|
D|-----------0---------0---------0---------0----------|
A|---------2---------2---------2---------2------------|
E|-------3---------3---------3---------3--------------|

"Come on!"
(Strum)

e|-------x--------x--------x--------x--------x--------|
b|-------1--------0--------1--------5--------0--------|
g|-------0--------0--------0--------0--------0--------|
D|-------2--------2--------2--------x--------2--------|
A|-------3--------3--------3--------7--------3--------|
E|-------x--------x--------x--------x--------x--------|
---------C------Cmaj7------C--------E------Cmaj7------|

Track 03 - Razorblade

Verse: This or just strum over the strings at various parts.
E-----5-------3-|
B---5-------5---|
G-2-------2-----|
D---------------|
A---------------|
E---------------|

Pre-Chorus:
E------------------------|
B------------------------|
G-2~---2~---2~---2~--5-7-|
D-2~---2~---2~---2~--5-7-|
A-0~---0~---0~---0~--3-5-|
E------------------------|


Chorus: Repeated several times
E--------------|
B--------------|
G-2~-xx2~-x-xx-|
D-2~-xx2~-x-xx-|
A-0~-xx0~-x-xx-|
E--------------|

Solo: For sake of space I'll take out the not used strings
B------------------------------------------------------------------------|
G------------------------------------------------------------------------|
D-7h9-10p9p7-10p9p7-10p9p7-10p9p7-10p9p7~-9p7p5-9p7p5-9p7p5-9p7p5-9p7p5~-|

B------------------------------------------|
G------------------------------------------|
D-12p10p9-12p10p9-12p10p9-12p10p9-12p10p9~-|

B------------------------------------|
G-9p7p5-9p7p5-10p9p7-10p9p7-12p10p9~-|
D------------------------------------|

B-13p12p10-13p12p10-13p12p10-13p12p10-13p12p10~-|
G-----------------------------------------------|
D-----------------------------------------------|

B-12p10p8-12p10p8-12p10p8-12p10p8-12p10p8~-|
G------------------------------------------|
D------------------------------------------|

B-15p13p12-15p13p12p-15p13p12p-15p13p12-15p13p12~-|
G-------------------------------------------------|
D-------------------------------------------------|

B-17p15p13-17p15p13-18p17p15-20p18p17-20-|
G----------------------------------------|
D----------------------------------------|

Last Chorus:
E---------------------------------------------------------|
B---------------------------------------------------------|
G-2---22-2---22-2--xx2-x-xx2-xx2-x-xx2-xx2-x-xx2-xx2-x-xx-|
D-2---22-2---22-2--xx2-x-xx2-xx2-x-xx2-xx2-x-xx2-xx2-x-xx-|
A-0---00-0---00-0--xx0-x-xx0-xx0-x-xx0-xx0-x-xx0-xx0-x-xx-|
E---------------------------------------------------------|

Outro: Just random strumming over the strings

Track 04 - Calling You

Intro: doesn't play

Verse:
E-0------------------------------------------|
B-----1------1---1------3----0----3--3--3--3-|
G----0--0-0-----2--2-2----2---------0--0--0--|
D---2----------3--------0---3-----0---0------|
A-3------3----------3------------------------|
E------------1-------------------------------|

E-0----------------------------------|
B-----1------1---1------3----0----3~-|
G----0--0-0-----2--2-2----2----------|
D---2----------3--------0---3-----0~-|
A-3------3----------3----------------|
E------------1-----------------------|

Pre-Chorus: twice
E-1--1--1---1--1--1-1--1-1-1--1--1---1--1--1-1--1-1-|
B-1--1--1---1--1--1-1--1-1-3--3--3---3--3--3-3--3-3-|
G-2--2--2---2--2--2-2--2-2-2--2--2---2--2--2-2--2-2-|
D-3--3--3---3--3--3-3--3-3-0--0--0---0--0--0-0--0-0-|
A-3--3--3---3--3--3-3--3-3--------------------------|
E-1--1--1---1--1--1-1--1-1--------------------------|

E-0--0--0---0--0--0-0--0-0-3--3--3---3--3--3-3--3-3-|
B-1--1--1---1--1--1-1--1-1-2--2--2---2--2--2-2--2-2-|
G-2--2--2---2--2--2-2--2-2-0--0--0---0--0--0-0--0-0-|
D-2--2--2---2--2--2-2--2-2-0--0--0---0--0--0-0--0-0-|
A-0--0--0---0--0--0-0--0-0-2--2--2---2--2--2-2--2-2-|
E--------------------------3--3--3---3--3--3-3--3-3-|

Chorus: twice
E-0--0--0--0-0--0-0--0--0-0-1--1--1--1-1--1-1--1--1-1-|
B-1--1--1--1-1--1-1--1--1-1-1--1--1--1-1--1-1--1--1-1-|
G-0--0--0--0-0--0-0--0--0-0-2--2--2--2-2--2-2--2--2-2-|
D-2--2--2--2-2--2-2--2--2-2-3--3--3--3-3--3-3--3--3-3-|
A-3--3--3--3-3--3-3--3--3-3-3--3--3--3-3--3-3--3--3-3-|
E---------------------------1--1--1--1-1--1-1--1--1-1-|

E-1--1--1--1-1--1-1--1--1-1-3--3--3--3-3--3-3--3--3-3-|
B-3--3--3--3-3--3-3--3--3-3-2--2--2--2-2--2-2--2--2-2-|
G-2--2--2--2-2--2-2--2--2-2-0--0--0--0-0--0-0--0--0-0-|
D-0--0--0--0-0--0-0--0--0-0-0--0--0--0-0--0-0--0--0-0-|
A---------------------------2--2--2--2-2--2-2--2--2-2-|
E---------------------------3--3--3--3-3--3-3--3--3-3-|

Verse: 4 times
E------------|
B-1--1--3--3-|
G-0--2--2--0-|
D-2--3--0--0-|
A-3--3-----2-|
E----1-----3-|

Pre-Chorus: first part bass
E---------------------------------|
B---------------------------------|
G-9-9-9-9-9-9-9-9-9-9-9-9-9-9-9-9-|
D-x-x-x-x-x-x-x-x-x-x-x-x-x-x-x-x-|
A-7-7-7-7-7-7-7-7-7-7-7-7-7-7-7-7-|
E---------------------------------|

E-----------------------------------------|
B-----------------------------------------|
G-9-9-9-9-9-9-9-9-12-12-12-12-12-12-12-12-|
D-x-x-x-x-x-x-x-x--x--x--x--x--x--x--x--x-|
A-7-7-7-7-7-7-7-7-10-10-10-10-10-10-10-10-|
E-----------------------------------------|

Chorus: twice
E-0--0--0--0-0--0-0--0--0-0-1--1--1--1-1--1-1--1--1-1-|
B-1--1--1--1-1--1-1--1--1-1-1--1--1--1-1--1-1--1--1-1-|
G-0--0--0--0-0--0-0--0--0-0-2--2--2--2-2--2-2--2--2-2-|
D-2--2--2--2-2--2-2--2--2-2-3--3--3--3-3--3-3--3--3-3-|
A-3--3--3--3-3--3-3--3--3-3-3--3--3--3-3--3-3--3--3-3-|
E---------------------------1--1--1--1-1--1-1--1--1-1-|

E-1--1--1--1-1--1-1--1--1-1-3--3--3--3-3--3-3--3--3-3-|
B-3--3--3--3-3--3-3--3--3-3-2--2--2--2-2--2-2--2--2-2-|
G-2--2--2--2-2--2-2--2--2-2-0--0--0--0-0--0-0--0--0-0-|
D-0--0--0--0-0--0-0--0--0-0-0--0--0--0-0--0-0--0--0-0-|
A---------------------------2--2--2--2-2--2-2--2--2-2-|
E---------------------------3--3--3--3-3--3-3--3--3-3-|

Break: twice
E-0-0-0-0-0-0-0-0-1-1-1-1-1-1-1-1-|
B-1-1-1-1-1-1-1-1-3-3-3-3-3-3-3-3-|
G-2-2-2-2-2-2-2-2-2-2-2-2-2-2-2-2-|
D-2-2-2-2-2-2-2-2-0-0-0-0-0-0-0-0-|
A-0-0-0-0-0-0-0-0-----------------|
E---------------------------------|

E-3-3-3-3-3-3-3-3-0-0-0-0-0-0-0-0-|
B-2-2-2-2-2-2-2-2-1-1-1-1-1-1-1-1-|
G-0-0-0-0-0-0-0-0-0-0-0-0-0-0-0-0-|
D-0-0-0-0-0-0-0-0-2-2-2-2-2-2-2-2-|
A-2-2-2-2-2-2-2-2-3-3-3-3-3-3-3-3-|
E-3-3-3-3-3-3-3-3-----------------|

Then

E-0-0-0-0-0-0-0-0-|
B-1-1-1-1-1-1-1-1-|
G-0-0-0-0-0-0-0-0-|
D-2-2-2-2-2-2-2-2-|
A-3-3-3-3-3-3-3-3-|
E-----------------|

Chorus: to the end
E-0--0--0--0-0--0-0--0--0-0-1--1--1--1-1--1-1--1--1-1-|
B-1--1--1--1-1--1-1--1--1-1-1--1--1--1-1--1-1--1--1-1-|
G-0--0--0--0-0--0-0--0--0-0-2--2--2--2-2--2-2--2--2-2-|
D-2--2--2--2-2--2-2--2--2-2-3--3--3--3-3--3-3--3--3-3-|
A-3--3--3--3-3--3-3--3--3-3-3--3--3--3-3--3-3--3--3-3-|
E---------------------------1--1--1--1-1--1-1--1--1-1-|

E-1--1--1--1-1--1-1--1--1-1-3--3--3--3-3--3-3--3--3-3-|
B-3--3--3--3-3--3-3--3--3-3-2--2--2--2-2--2-2--2--2-2-|
G-2--2--2--2-2--2-2--2--2-2-0--0--0--0-0--0-0--0--0-0-|
D-0--0--0--0-0--0-0--0--0-0-0--0--0--0-0--0-0--0--0-0-|
A---------------------------2--2--2--2-2--2-2--2--2-2-|
E---------------------------3--3--3--3-3--3-3--3--3-3-|

Guitar 2:

Inro/Verse:
E------------------------------------------|
B-3--3--1--1--3--3--1--1--3--3--1--1--3--3-|
G-2--0--0--2--2--0--0--2--2--0--0--2--2--0-|
D-0--0--2--3--0--0--2--3--0--0--2--3--0--0-|
A----2--3--3-----2--3--3-----2--3--3-----2-|
E----3-----1-----3-----1-----3-----1-----3-|

Pre-Chorus: guitar 1 first half
E---------------------|
B---------------------|
G---------------------|
D-3~~--12~~--7~~--5~~-|
A-3~~--12~~--7~~--5~~-|
E-1~~--10~~--5~~--3~~-|

Chorus:
E---------------------------------------------------------|
B---------------------------------------------------------|
G-5--5--5--5-5--5-5--5--5-5-10--10--10--10-9--9-9--9--9-9-|
D-x--x--x--x-x--x-x--x--x-x--x---x---x---x-x--x-x--x--x-x-|
A-3--3--3--3-3--3-3--3--3-3--8---8---8---8-7--7-7--7--7-7-|
E---------------------------------------------------------|

E-----------------------------------------------------|
B-----------------------------------------------------|
G-7--7--7--7-7--7-7--7--7-7-7--7--7--7-7--7-7--7--7-7-|
D-x--x--x--x-x--x-x--x--x-x-x--x--x--x-x--x-x--x--x-x-|
A-5--5--5--5-5--5-5--5--5-5-5--5--5--5-5--5-5--5--5-5-|
E-----------------------------------------------------|

Verse:
E-----------------------------------------------|
B-1--1--3--3--1--1--3--3--1--1--3--3-1--1--3--3-|
G-0--2--2--0--0--2--2--0--0--2--2--0-0--2--2--0-|
D-2--3--0--0--2--3--0--0--2--3--0--0-2--3--0--0-|
A-3--3-----2--3--3-----2--3--3-----2-3--3-----2-|
E----1-----3-----1-----3-----1-----3----1-----3-|

Pre Chorus: first part bass
E---------------------|
B---------------------|
G---------------------|
D-3~~--12~~--7~~--5~~-|
A-3~~--12~~--7~~--5~~-|
E-1~~--10~~--5~~--3~~-|

Chorus:
E---------------------------------------------------------|
B---------------------------------------------------------|
G-5--5--5--5-5--5-5--5--5-5-10--10--10--10-9--9-9--9--9-9-|
D-x--x--x--x-x--x-x--x--x-x--x---x---x---x-x--x-x--x--x-x-|
A-3--3--3--3-3--3-3--3--3-3--8---8---8---8-7--7-7--7--7-7-|
E---------------------------------------------------------|

E-----------------------------------------------------|
B-----------------------------------------------------|
G-7--7--7--7-7--7-7--7--7-7-7--7--7--7-7--7-7--7--7-7-|
D-x--x--x--x-x--x-x--x--x-x-x--x--x--x-x--x-x--x--x-x-|
A-5--5--5--5-5--5-5--5--5-5-5--5--5--5-5--5-5--5--5-5-|
E-----------------------------------------------------|

Break:
E---------------------------|
B---------------------------|
G-2-----------2-------------|
D-2--3--5--3--2--3--5--3--5-|
A-0--3--5--3--0--3--5--3--5-|
E----1--3--1-----1--3--1--3-|

Chorus: skip first half then come in with the first note held
E---------------------------------------------------------|
B---------------------------------------------------------|
G-5--5--5--5-5--5-5--5--5-5-10--10--10--10-9--9-9--9--9-9-|
D-x--x--x--x-x--x-x--x--x-x--x---x---x---x-x--x-x--x--x-x-|
A-3--3--3--3-3--3-3--3--3-3--8---8---8---8-7--7-7--7--7-7-|
E---------------------------------------------------------|

E-----------------------------------------------------|
B-----------------------------------------------------|
G-7--7--7--7-7--7-7--7--7-7-7--7--7--7-7--7-7--7--7-7-|
D-x--x--x--x-x--x-x--x--x-x-x--x--x--x-x--x-x--x--x-x-|
A-5--5--5--5-5--5-5--5--5-5-5--5--5--5-5--5-5--5--5-5-|
E-----------------------------------------------------|

Track 05 - Chameleon Boy - Credited to AggiePhil--phil@phildorsett.com

Intro: Repeat 3x; 2nd and 3rd time end with
3 on the b string

e------------------------------------------|
b-------0---0h1-------0---0h1--------------|
g---------0-----0-------0-----0------------|
d-----------------0-------------0----------|
a-------0---0-------0-----0----------------|
e---------------------------------3--------|

Verse: "I change my color for you..."
e-----------------------------------------------|
b-----------------------------------------------|
g-----------0-----------------0-----------------|
d--------------------0-----------------0--------|
a-------0-3--------2------0-3--------2----------|
e----------------3-----------------3------------|

Chorus: "Standby for another break down..."
e-------x--------x--------x--------x------------------x--------x-----------|
b-------1--------0--------1--------0------------------1--------3-----------|
g-------0--------0--------0--------0------------------2--------0-----------|
d-------2--------0--------2--------0------------------2--------0-----------|
a-------3--------2--------3--------2------------------0--------2-----------|
e-------x--------3--------x--------3------------------x--------3-----------|
--------C--------G6-------C--------G6-----------------Am-------G-----------|

Verse: "So now we've come upon..."
e-----------------------------------------------|
b-----------------------------------------------|
g-----------0-----------------0-----------------|
d--------------------0-----------------0--------|
a-------0-3--------2------0-3--------2----------|
e----------------3-----------------3------------|

Violin part:
e--------------------------------------------------------------------------|
b-----------0-3-1---0-1---0-0-0-1-0--------------0-3-1---0-1---0-0-0-1-0---|
g-------0-2-------------------------0--------0-2-------------------------0-|
d--------------------------------------------------------------------------|
a--------------------------------------------------------------------------|
e--------------------------------------------------------------------------|

"And while I play instead..."

e---------------------------------------------------------------------|
b-------0-1---0-1---0-0-0-1-0----------0-1---0-1---0-0-0-1-0-3--------|
g-----------------------------0---------------------------------------|
d---------------------------------------------------------------------|
a---------------------------------------------------------------------|
e---------------------------------------------------------------------|

Chorus "Standby for another break down..."
e-------x--------x--------x--------x---------x--------x--------x--|
b-------1--------0--------1--------0---------1--------1--------1--|
g-------0--------0--------0--------0---------0--------0--------0--|
d-------2--------0--------2--------0---------2--------0--------2--|
a-------3--------2--------3--------2---------3--------2--------3--|
e-------x--------3--------x--------3---------x--------3--------x--|
--------C--------G6-------C--------G6--------C--------G6-------C--|

e-------x-------x-------x-|
b-------0-------1-------3-|
g-------0-------2-------0-|
d-------0-------2-------0-|
a-------2-------0-------2-|
e-------3-------x-------3-|
--------G6------Am--------|G

Verse: "I try to think of all the people I looked up to..."
e-----------------------------------------------|
b-----------------------------------------------|
g-----------0-----------------0-----------------|
d--------------------0-----------------0--------|
a-------0-3--------2------0-3--------2----------|
e----------------3-----------------3------------|

Violin part:
e---------------------------------------------|
b--------0-0h1---0-0h1---0-0h1---0-0h1--------|
g---------------------------------------------|
d---------------------------------------------|
a---------------------------------------------|
e---------------------------------------------|

Guitar solo:
e--------------------------|
b--7-8^-7-8^-7-7-8^-7-8^-7-|
g--------------------------|
d--------------------------|
a--------------------------|
e--------------------------|

e-----------------------------------------------|
b--3--1-3--1--3--1--3--1--0-----0----0-----0----|
g----------------------------0----0-----0-----0-|
d-----------------------------------------------|
a-----------------------------------------------|
e-----------------------------------------------|

Violin:
e--------------------------------------------------------------------------|
b-------0-0h1-----0-0h1-----0-0-0-1-0---------0-0h1-----0-0h1-----0-0-0-1--|
g------------0---------0---------------------------0---------0-------------|
d--------------------------------------------------------------------------|
a--------------------------------------------------------------------------|
e--------------------------------------------------------------------------|

Chorus: "Standby for another break down..."
e-------x--------x--------x--------x------------------|
b-------1--------0--------1--------0------------------|
g-------0--------0--------0--------0------------------|
d-------2--------0--------2--------0------------------|
a-------3--------2--------3--------2------------------|
e-------x--------3--------x--------3------------------|
--------C--------G6-------C--------G6-----------------|

Outro:
e---------------------------------x--------|
b-------0-0h1---0-0h1---0-0-0-1-0-3--------|
g---------------------------------0--------|
d---------------------------------0--------|
a---------------------------------2--------|
e---------------------------------3--------|

Track 06 - Sexual Powertrip (One Big Lie) Bla Bla

[]-Played First time through only

Intro: harmonics (2nd guitar)
E-----------|
B-----------|
G-5----5----|
D-----------|
A---3-----3-|
E-----------|

Riff 1
E-----[0]-----------------------------------|
B--------[1]--------------------------------|
G-[2]----------------------0--0-0-----------|
D-[2]-------------2--2-3-2--------2-3-2-3-2-|
A-[0]----------3----------------------------|
E-------------------------------------------|

Riff 2
E-------------------------------------|
B-------------------------------------|
G-10-10-10-10-9-9-9-9-7-7-7-7-5-5-5-5-|
D-x--x--x--x--x-x-x-x-x-x-x-x-x-x-x-x-|
A-8--8--8--8--7-7-7-7-5-5-5-5-3-3-3-3-|
E-------------------------------------|

Riff 3 (The middle of the verse is just some scratching over the strings)
E-x-x-x--x--x--x-|
B-x-x-x--x--x--x-|
G-x-x-x--x--x--x-|
D-x-x-x--x--x--x-|
A-x-x-x--x--x--x-|
E-x-x-x--x--x--x-|

Riff 4 the 0,1 is played on the second time around
E-------------------------------0---|
B---------------------------------1-|
G-------------0--0-0----------------|
D----2--2-3-2--------2-3-2-3-2------|
A-0---------------------------------|
E-----------------------------------|

Riff 5 strummed throughout entire part (you'll know what i mean)
E--
B--
G--
D--
A-3
E--

Riff 6
E-------|
B-------|
G-7-9-5-|
D-x-x-x
A-5-7-3-|
E-------|

Riff 7 strum the 15x17 to the end
E----------------|
B----------------|
G-10-12-14-16-17-|
D-x---x--x--x--x-|
A-8--10-12-14-15-|
E----------------|

Order:
Riff 1-----------|4x
Riff 2-----------|2x
Riff 3-----------|1x
Riff 2-----------|2x
Riff 1-----------|2x
Riff 4-----------|2x
Riff 5----64-----|x lol i counted.
Riff 2-----------|2x
Riff 6-----------|1x
Riff 5----32-----|x only half that time lol.
Riff 2-----------|2x
Riff 7-----------|1x

Track 07 - A Quiet Mind - Credited to AggiePhil--phil@phildorsett.com

Intro
(Strum)

e|-------x--------x--------x--------x--------x--------x--------x--------x--------|
b|-------3--------1--------0--------0--------1--------0--------1--------0--------|
g|-------0--------0--------0--------0--------0--------0--------0--------0--------|
D|-------2--------2--------2--------2--------2--------2--------2--------2--------|
A|-------3--------3--------3--------0--------0--------0--------0--------0--------|
E|-------x--------x--------x--------x--------x--------x--------x--------x--------|
-------Cadd9------C------Cmaj7----A7sus2----Am7-----A7sus2----Am7-----A7sus2-----|

Verses ("A slow strangle with your feet on the floor...")
(Strum)

e|-------x--------x--------x--------x--------x--------x--------x--------x--------x--------x------|
b|-------3--------1--------0--------0--------1--------0--------1--------0--------1--------1------|
g|-------0--------0--------0--------0--------0--------0--------0--------0--------2--------2------|
D|-------2--------2--------2--------2--------2--------2--------2--------2--------2--------3------|
A|-------3--------3--------3--------0--------0--------0--------0--------0--------0--------3------|
E|-------x--------x--------x--------x--------x--------x--------x--------x--------x--------x------|
-------Cadd9------C------Cmaj7----A7sus2----Am7-----A7sus2----Am7-----A7sus2-----Am-------F------|

Chorus ("You give me a quiet mind...")
(Strum)

e|-------x--------x--------x--------x--------|
b|-------3--------1--------1--------3--------|
g|-------0--------2--------0--------0--------|
D|-------0--------2--------2--------0--------|
A|-------2--------0--------3--------2--------|
E|-------3--------x--------x--------3--------|
---------G--------Am-------C--------G--------|


Repeat Intro (twice)

Repeat Verse

Repeat Chorus

Repeat Intro (twice)


Outro ("Oh, oh, oh, oh...")
(Strum)
•Repeat 3 times
•End Outro on Cmaj7 and let ring

e|-------x--------x--------x--------x--------|
b|-------3--------1--------0--------1--------|
g|-------0--------0--------0--------0--------|
D|-------2--------2--------2--------2--------|
A|-------3--------3--------3--------3--------|
E|-------x--------x--------x--------x--------|
-------Cadd9------C------Cmaj7------C--------|

Track 08 - 3 Weeks, She Sleeps

The Whole Song:
E---------------------------|
B---0-----0-----------------|
G-------------2---2p0-0-----|
D-----0-----0---0-------0---|
A-------------------------0-|
E-3-----2-------------------|

E-------------------------|
B-------------------------|
G-----0-----0-----0-------|
D---2-----0-----0-------0-|
A-3-----2-----1----1/3~---|
E-------------------------|

Track 09 - Inner Glow - Credited to AggiePhil--phil@phildorsett.com

Intro & Verses ("I'm like a storm could, eager when you go wild...")
(Strum)

e|-------x--------x--------x--------x--------|
b|-------3--------1--------1--------3--------|
g|-------0--------2--------0--------0--------|
D|-------0--------2--------2--------0--------|
A|-------2--------0--------3--------2--------|
E|-------3--------x--------x--------3--------|
---------G--------Am-------C--------G--------|

Pre-Chorus ("Because, I'm on your side...")
(Strum)

e|-------x--------x--------x--------x--------|
b|-------3--------1--------3--------3--------|
g|-------2--------0--------0--------2--------|
D|-------0--------2--------0--------0--------|
A|-------0--------3--------2--------0--------|
E|-------x--------x--------3--------x--------|
---------D--------C--------G--------D--------|

Chorus ("Whatever happened to our inner glow...")
(Strum)
•Changes between G/F#-G-Em are pretty fast ("the me I used to know")

e|-------x--------x--------x--------x--------x---x---x--------x--------x--------x--------|
b|-------3--------1--------3--------3--------3---3---0--------1--------3--------3--------|
g|-------0--------2--------2--------0--------0---0---0--------2--------2--------0--------|
D|-------0--------2--------0--------0--------0---0---2--------2--------0--------0--------|
A|-------2--------0--------0--------2--------0---2---2--------0--------0--------2--------|
E|-------3--------x--------x--------3--------2---3---0--------x--------x--------3--------|
---------G--------Am-------D--------G------G/F#--G---Em-------Am-------D--------G--------|

Repeat Verses

Repeat Pre-Chorus

Repeat Chorus (twice)

Track 10 - Somebody

Drop D

Note - The 3's in the intro might just be him
hitting the string with no note but his finger
on top of it.

Intro/Outro:
E-------------------------------|-----2-------2-------2---------|
B-------------------------------|-------------------------------|
G-------------------------------|-------------------------------|
D-------------------------------|-------------------------------|
A-----------------------------1-|-----------------------------1-|
D-0-0-3-00-00-3-000-0-3-00-000--|-0-0---00-00---000-0---00-000--|

Verse:
E-----2-------2-------2-------|
B-----------------------------|
G-----------------------------|
D-----------------------------|
A-----------------------------|
D-0-0---00-00---000-0---00-00-|

Pre-Chorus:
E-----2--------------2---------|
B------------------------------|
G------------------------------|
D------------------------------|
A-------------3--------------1-|
E-0-0---00-00----0-0---00-00---|

Chorus:
E---------------------------------|
B---------------------------------|
G---------------------------------|
D-0-7-5-0-5-3-0-3-0-0-x-00-0-x-xx-|
A-0-7-5-0-5-3-0-3-0-0-x-00-0-x-xx-|
E-0-7-5-0-5-3-0-3-0-0-x-00-0-x-xx-|

Post-Chorus:
E------------------------------------------|
B------------------------------------------|
G------------------------------------------|
D------------------------------------------|
A------------------------------------------|
E-0-0-00-00-0-0-00-00--0-0-00-00-0-0-00-00-|

Verse 2:
E-----2-------2-------2---------|
B-------------------------------|
G-------------------------------|
D-------------------------------|
A-----------------------------1-|
D-0-0---00-00---000-0---00-000--|

Break:
E--------------------------------------------|
B--------------------------------------------|
G--------------------------------------------|
D-0~---7~---5~---3-3-3-5p0---5p0---5p0---5p0-|
A-0~---7~---5~---3-3-3-5p0---5p0---5p0---5p0-|
D-0~---7~---5~---3-3-3-5p0---5p0---5p0---5p0-|

Outro:
E-----2-------2-------2---------|-----2--------------2---------|
B-------------------------------|------------------------------|
G-------------------------------|------------------------------|
D-------------------------------|------------------------------|
A-----------------------------1-|-------------3--------------1-|
D-0-0---00-00---000-0---00-000--|-0-0---00-00----0-0---00-00---|

E-----2-----------------------|
B-----------------------------|
G-----------------------------|
D-----------------------------|
A-------------3---------------|
E-0-0---00-00----0000-00-03/0-|

Track 11 - Come In Closer

Played all throughout the song: Capo 1
E-------------------------------------------------|
B-3-3-3-3-3-3/1-1-1-1-1-1-------------------------|
G-------------------------2-2-2-2-2-2/3-3-3-3-3-3-|
D-------------------------------------------------|
A-------------------------------------------------|
E-------------------------------------------------|

E-------------------------------------------------|
B-----------1-1-1-1-1-1/3-3-3-3-3-3/1-1-1-1-1-1-1-|
G-2-2-2-2-2---------------------------------------|
D-------------------------------------------------|
A-------------------------------------------------|
E-------------------------------------------------|

Chords:
D-xx023x
C-x3201x
A-x022xx
Bb-x133xx

Capo 1

          D                           C
The first born, my heart will call Truly
  A                   Bb
A God-like boy of the sky
    A                        C
The fog hissed away like a movie
    D                          C
And serpents go home for the night
    D                              C
The thundercloud rain hits the freeway
        A                         Bb
And the clowns put on makeup for show
    A                                   C
The knife on my skin crawl kind of evening
                        D
Yeah how the wind she blows
                       C
And how the wind she blows


                  D
But I want you to come in closer
                C
Come in closer, come in closer
A
Come in closer, come in closer
Bb              A
Come in closer, come in closer
   C       D          C
In closer, ooh, ooh

We'll come dancing with devils
Need not know their name
But we'll waltz like an army
For the fear of our pain
And our souls become useless
As the day they were born
In the rusted arm rocking chair
Away from your storm

But still the truth remains lethal
A lie made by man
Where my shoes become hammers
And my words become sand (His words became sand)
Like a sour patch, a wedding batch
Of roses you threw across my floor
In the rusted arm rocking chair
Away from your storm

Track 12 - Amazing - Credited to Unregistered

INTRO:

e--------------4--------------------------2------------------------|
B--------4-5-4---5-4-5-4------------2-3-2---3-2-3-2--3h5------0-2--|
G------6-----------------6-4------4--------------------------------|
D----6--------------------------4---------------------------2------|
A--4--------------------------2---------------------------0--------|
E------------------------------------------------------------------|

Verse 1:

A        E                Bm
  How am I supposed to breath?
A             E                          Bm
  I try to relax I touch your still frame
A                         Bm
  So I can watch you closer
                                   A          Bm
  and study the ways I believe I belong to you...to you...sorry...
A                    E                       Bm
  I scratch at your waist line your doll hair
A                                            Bm
  I dig up the thought of how your eyes glow
       A                                     Bm
 So I make you my religion, my collision, my escape goat

Prechorus:

           A                               Bm
 So have I found your secret weak spot baby?

Chorus:

Dm
  Can you pretend I'm amazing?
                          C#m
I can pretend I'm amazing
                           C#m
Instead of what we both know
                            Bm
Instead of what we both know

Dm
  I cut to the punch line baby
                           C#m
Can we pretend I'm amazing?
                         C#m  Bm
Instead of what we both know

Verse 2:

Now our history is for sale
And for that, I apologize
You see, you're my only know how
The study of when I believed I belonged to you...to you...
You see, I've made you into something more delicious,
My sweet ghost

Prechorus

Repeat Chorus

Questions?
Email at cory.roesch@yahoo.com
comments
We did not receive enough feedback on this tab! Please rate:
print report bad tab
1 2 3 4 5
I want to post or [tab]
guest
You may want to rate the tab now too:
select rating
Please do not post tabs as comments. Select "correction" instead!