Oops, an error
Loading. Please wait.

Astronomy Live Tab

945 views 6 this week
3 commentsread comments
1 2 3 4 5
excellent!
x 1
add to favorites launch autoscroll
font size
0
reset
Autoscroll
+/-
esc
set tempo
stop
Contributor
Difficulty
intermediate
WARNING: You are trying to view
                                    content from Ultimate-Guitar.com
                                    in an unauthorized application,
                                    which is prohibited.

                                    Please use an official Ultimate
                                    Guitar Tabs application for iPhone,
                                    iPad or Android to access legitimate
                                    chords, guitar, bass, and drum tabs
                                    from Ultimate-Guitar.com database.

                                    Type "ultimate guitar tabs" in Apple
                                    App Store's or Android Market's
                                    search to find the application.
-----------------------------------------------------------------------------
                             Astronomy - Blue Öyster Cult 
-----------------------------------------------------------------------------
Key:
************************************
| /   slide up
| \   slide down
| h   hammer-on
| p   pull-off
| ~   vibrato
| +   harmonic
| x   Mute note
| b   Bend
| pb  Pre-bend
| br  Bend release
| pbr Pre-bend release
| brb Bend release bend
************************************

The solo from the Some Enchanted Evening Album:


4:23.....
e|-15-------------12--------------------------------------------------------|
B|-------13----15------------------12---------------------------------------|
G|---------------------12---12h14-------------------------------------------|
D|--------------------------------------14-14-------------------------------|
A|--------------------------------------------------------------------------|
E|--------------------------------------------------------------------------|

e|--------------------14-15--14--12--12p10-----------------------10b-10b----|
B|-----------12----15----------------------12p10-----------10h12---------12-|
G|-11-12-14-----14-------------------------------12--11s12------------------|
D|--------------------------------------------------------------------------|
A|--------------------------------------------------------------------------|
E|--------------------------------------------------------------------------|

e|-10s12-10-----------------------------------------------------------------|
B|----------12p10--------10-12-10p8--------8-10s12-10s8---------------------|
G|----------------12----------------9----9--------------x-5-----------------|
D|--------------------------------------------------------------------------|
A|--------------------------------------------------------------------------|
E|--------------------------------------------------------------------------|

e|--------------------------------------------------------------------------|
B|---8--10s12-10p8----8-10-12-12-10p8---------------------------------------|
G|-9----------------9-----------------5--7/---------------------------------|
D|--------------------------------------------------2s4-5-5-----------------|
A|-------------------------------------------s7-----------------------------|
E|--------------------------------------------------------------------------|

e|--------------------------------------------------------------------------|   
B|----------------------------------7---7-7b-7pbr----7--7s5s3--3h5-5--------|
G|-----------------------------9--9---9-----------9-------------------------|
D|-5h7-4h5p4-4-2-2-2-2--s7-7h9----------------------------------------------|
A|--------------------------------------------------------------------------|
E|--------------------------------------------------------------------------|

e|-------------0--0---0----------------------0------------------------------|
B|-3s5-5-5---3------3---0---------------------------------------------------|
G|------------------------2h4--4p2------------------------------------------|
D|---------------------------------5-2--------------------------------------|
A|-------------------------------------5-5s7---7--7s9-9---------------------|
E|--------------------------------------------------------------------------|

e|--------------------------------------------------------------------------|
B|--------------------------------------------------------------------------|
G|-------2-2h4p2-----2------------------------------------------------------|
D|-2-4-5----------5-----4-5-4h5p4p2----2---------------------------2--------|
A|-----------------------------------5----3-5--5-3-5--5-3-5--5-3-5----------|
E|--------------------------------------------------------------------------|

e|-------------------2h3p2-3-3--3-2-3-3h5p3p2-3-2-2h3p2---2-----------------| 
B|-------5-x-3-3h5-3------------------------------------5---3---------------|
G|---4-x--------------------------------------------------------------------|
D|-2------------------------------------------------------------------------|
A|--------------------------------------------------------------------------|
E|--------------------------------------------------------------------------|

5:34....
e|---7-----7-----7--s10-9-8-7-----------------------------------------------|
B|-x---5-5---5-5--------------11-10-8--10b-10-8-10---8-10-10brp8-10---------|
G|--------------------------------------------------------------------------|
D|--------------------------------------------------------------------------|
A|--------------------------------------------------------------------------|
E|--------------------------------------------------------------------------|

e|--------10-8-7----7-8-7h8p7----7------------------10-10-10-10-10-10-10-10/|
B|---8h10--------10-----------10---10brp8----10s12--------------------------|
G|-9--------------------------------------9---------------------------------|
D|--------------------------------------------------------------------------|
A|--------------------------------------------------------------------------|
E|--------------------------------------------------------------------------|

e|-s12-12------12-----------------------------------------------------------|
B|-s12-12-------------------------------------------------------------------|
G|---------14b----14brp12-14p12---14-12-14--12-14-12---/--------------------|
D|--------------------------------------------------------------------------|
A|--------------------------------------------------------------------------|
E|--------------------------------------------------------------------------|

e|-------------------------------------------10b-10b--s12-13-15-15p13p12----|
B|----------------x--10--8-10b-10pbrp8--------------------------------------|
G|----7-7---9---s12--------------------9p7----------------------------------|
D|-s9-----9---9-------------------------------------------------------------|
A|--------------------------------------------------------------------------|
E|--------------------------------------------------------------------------|

e|-13-15-15br--17b--17-15-17-15-14-15-14----14------------------------------|  
B|---------------------------------------17----18brp15----------------------|
G|--------------------------------------------------------------------------|
D|--------------------------------------------------------------------------|
A|--------------------------------------------------------------------------|
E|--------------------------------------------------------------------------|

e|--------------------------------------------------------------------------|
B|-17----15-----------------------------------------------------------------|
G|----16----16-16s14-12-14-12----12-14-16p15p14-12----12--------------------|
D|----------------------------14-------------------14-----------------------|
A|--------------------------------------------------------------------------|
E|--------------------------------------------------------------------------|

e|--------------------------------------------------------------------------|
B|-15-14-13-12--------------------------------------------13-12-13p12-------|
G|-------------15-15p14p12-14----12-14brp12----12------12-------------------|
D|----------------------------14------------14------14----------------------|
A|--------------------------------------------------------------------------|
E|--------------------------------------------------------------------------|

6:03...
e|--------------------------------------------------------------------------|
B|--------------------------------------------------------------------------|           
G|-14b-14pb-14pb-14pb-14r------12----14----12-------------------------------|
D|-------------------------s14----14----14----14/---------------------------|
A|--------------------------------------------------------------------------|
E|--------------------------------------------------------------------------|

e|--------------------------------------------------------------------------|
B|------------------7-8---7-8p7---8-7--8p7-10-8p7-8p7-8p7--7h8p7-5----------|
G|-------4-7p4-4s7----------------------------------------------------------|
D|-2s4-5--------------------------------------------------------------------|
A|--------------------------------------------------------------------------|
E|--------------------------------------------------------------------------|

e|-------------5---5-10-8-7----7---------8---------7------------------------|
B|-7-8p7p5-7-8---8----------10---10b-10--10p8------10b----------------------|
G|--------------------------------------------9-7---------------------------|
D|--------------------------------------------------------------------------|
A|--------------------------------------------------------------------------|
E|--------------------------------------------------------------------------|

e|-7---7-7--7---7-10--7---7-7-10----------------10b-10pbr-------------------|   
B|-10b------10b-------10b--------10pbrp8-10p8-------------------------------|
G|--------------------------------------------9-----------------------------|
D|--------------------------------------------------------------------------|
A|--------------------------------------------------------------------------|
E|--------------------------------------------------------------------------|

e|-8-7-8-7-8-7----7---------------------------------------------------------|
B|-------------10---10brp8-10-8-7-8--10p7p8-8p7-8p7---7---------------------|
G|--------------------------------------------------9-----------------------|
D|--------------------------------------------------------------------------|
A|--------------------------------------------------------------------------|
E|--------------------------------------------------------------------------|

e|-------------------------------10-8-7p0-7--7-7-7/-------------------------|
B|------7-8-7h8p7---7-10-8p7---7--------------------10-8-8/-----------------|
G|----9-----------9----------9----------------------------------------------|
D|-10-----------------------------------------------------------------------|
A|--------------------------------------------------------------------------|
E|--------------------------------------------------------------------------|

e|----------------------------------10-8-7-8p7------------------------------|
B|-8p7-8-10-8p7---7----7-8p7-10-8-7------------10b-10pb-10pbrp8---10---8----|
G|--------------9----9------------------------------------------9----9------|
D|--------------------------------------------------------------------------|
A|--------------------------------------------------------------------------|
E|--------------------------------------------------------------------------|

e|-10b-10pb-10pb-10pb-10pb-10pbr--12br---14b--------------------------------|
B|--------------------------------------------------------------------------|
G|--------------------------------------------------------------------------|
D|--------------------------------------------------------------------------|
A|--------------------------------------------------------------------------|
E|--------------------------------------------------------------------------|

6:33....
e|-14b-14p12-14h15-15p14p12-14----14-15-14h15p14p12-14-12-14----------------|
B|-----------------------------12-------------------------------------------|
G|--------------------------------------------------------------------------|
D|--------------------------------------------------------------------------|
A|--------------------------------------------------------------------------|
E|--------------------------------------------------------------------------|

e|-14-15-14h15p14--14-12-14-----14-15-14h15p14p12-14-15b--------------------|
B|---------------------------12---------------------------------------------|
G|--------------------------------------------------------------------------|
D|--------------------------------------------------------------------------|
A|--------------------------------------------------------------------------|
E|--------------------------------------------------------------------------|

e|-15-14-15-14h15p14p12-14--12h14p12-----12-12-12-12------------------------|
B|----------------------12--12-------h14------------------------------------|
G|--------------------------------------------------------------------------|
D|--------------------------------------------------------------------------|
A|--------------------------------------------------------------------------|
E|--------------------------------------------------------------------------|

e|--------------------------------------------------------------------------|
B|-15brp12-15p12-15-12------------------------------------------------------|
G|---------------------14br--14brp12-------12-14p12-11-12p11-14p12-16p14----|
D|-----------------------------------14-14----------------------------------|
A|--------------------------------------------------------------------------|
E|--------------------------------------------------------------------------|

e|--------------------------------------------------------------------------|
B|----13--12----------------------------------15-12h15b-15pb-15pb-15pb------|
G|-16---------14-14brp12--14--12-------12-14b-------------------------------|
D|-------------------------------12-14--------------------------------------|
A|--------------------------------------------------------------------------|
E|--------------------------------------------------------------------------|

e|------------------15-15-15-15-15-15-15/--s14-14-14-14-14-14/--------------|
B|-17b-17pb-17pb/---17-17-17-17-17-17-17/--s15-15-15-15-15-15/--------------|
G|--------------------------------------------------------------------------|
D|--------------------------------------------------------------------------|
A|--------------------------------------------------------------------------|
E|--------------------------------------------------------------------------|

e|-15-15-15-15-15-15-15-15-15-s17-17-17-17-17/--s12-12-12--15-12----12------|
B|-12-12-12-12-12-12-12-12-12-s15-15-15-15-15/--s12-12-12--------15-12-x----|
G|--------------------------------------------------------------------------|
D|--------------------------------------------------------------------------|
A|--------------------------------------------------------------------------|
E|--------------------------------------------------------------------------|

e|----------12--------------------------------------12-12-12-12-------------|
B|-15-15-15-12-15-15-15---12-12-12------------------12-12-12-12-------------|
G|----14-14----14-14---12----12-12-12-14brbrb/------------------------------|
D|--------------------------------------------------------------------------|
A|--------------------------------------------------------------------------|
E|--------------------------------------------------------------------------|

6:57....
e|-12-12-12-12s10-10--10-10-10-10-10s8-8-8----8-8-8-8s10-10-10--------------|
B|-12-12-12-12s10-10--10-10-10-10-10s8-8-8----8-8-8-8s10-10-10--------------|
G|--------------------------------------------------------------------------|
D|--------------------------------------------------------------------------|
A|--------------------------------------------------------------------------|
E|--------------------------------------------------------------------------|

e|-10h12-12-12--12-12-12-12s10-10-10--10-10-10-10s8-8-8--8-8-8\-------------|  
B|-10h12-12-12--12-12-12-12s10-10-10--10-10-10-10s8-8-8--8-8-8\---7-7-------|
G|----------------------------------------------------------------7-7-------|
D|----------------------------------------------------------------7-7-------|
A|----------------------------------------------------------------5-5-------|
E|--------------------------------------------------------------------------|
Astronomyyyyyyyyyyyyyy.....................
A Staaaaaarrrr............................

7:14...         
e|--------------------------------------------------------------------------|
B|-10brp8-10p8-10-8-10p8--10b-10p8-10-8-------------------------------------|
G|--------------------------------------9/----------------------------------|
D|--------------------------------------------------------------------------|
A|--------------------------------------------------------------------------|
E|--------------------------------------------------------------------------|

7:22....                                       7:28....
e|--------------------------------------------------------------------------|
B|--------------------------------------------------------------------------|
G|---------------------4-4-4s7-----------------2h4p2--5-x-5-x-5-x-7-7-------|
D|-2-2--4-5-4--2-2-2s5------------------------------------5---5---7-7-------|
A|----------------------------------------------------------------5-5-------|
E|--------------------------------------------------------------------------|

7:31....
e|--------------------------------------------------------------------------|
B|--------------------------------------------------------------------------|
G|---4----------------------------------------------------------------------|
D|-7---7b-7p5-8p7p5-7p5-7-5---5--5-7p5-7-9-7p5-7-5---5----------------------|
A|--------------------------7----------------------7---7-5------------------|
E|---------------------------------------------------------7-5-3------------|
comments
We did not receive enough feedback on this tab! Please rate:
print report bad tab
1 2 3 4 5
3 comments total.
0 reply
Blooker wrote on October 14 2011, 01:13 pm

For the record: This is my Tab. I made a mistake by not logging in....

0 reply
amx360 wrote on October 16 2011, 08:25 am

The highest of high fives!

0 reply
Blooker wrote on October 18 2011, 12:10 pm

Ignore the first comment ;)

I want to post or [tab]
guest
You may want to rate the tab now too:
select rating
Please do not post tabs as comments. Select "correction" instead!