Oops, an error
Loading. Please wait.

Fireworks Tab

1,580 views 3 this week
no commentswrite comment
1 2 3 4 5
worth learning
x 4
Autoscroll
+/-
esc
set tempo
stop
Contributor
WARNING: You are trying to view
                                    content from Ultimate-Guitar.com
                                    in an unauthorized application,
                                    which is prohibited.

                                    Please use an official Ultimate
                                    Guitar Tabs application for iPhone,
                                    iPad or Android to access legitimate
                                    chords, guitar, bass, and drum tabs
                                    from Ultimate-Guitar.com database.

                                    Type "ultimate guitar tabs" in Apple
                                    App Store's or Android Market's
                                    search to find the application.
FIREWORKS by BLUE ÖYSTER CULT words & music by Albert Bouchard
from the SPECTRES album



 |       |       |       |        |       |       |       |
|------------0---5---------------|------------0---2---------------|
|--------0-----------7-----------|--------0-----------3-----------|
|----0-------------------7-------|----0-------------------2-------|
|2---------------------------7---|2---------------------------4---|
|--------------------------------|--------------------------------|
|--------------------------------|--------------------------------|


 |       |       |       |        |       |       |       |
|------------0---5---2-----------|------------0---2---------------|
|--------0---------------3-------|--------0-----------3-----------|
|----0-----------------------2---|----0-------------------2-------|
|2-------------------------------|2---------------------------4---|
|--------------------------------|--------------------------------|
|--------------------------------|--------------------------------|
|
|--------------------------------|--------------------12--10------|
|--------------------------------|--------------------------------|
|--------------------------------|--------------------------------|
|--------------------------------|--------------------------------|
|--------------------------------|--------------------------------|
|--------------------------------|--------------------------------|


 |       |       |       |        |       |       |       |
|------------0---5---2-----------|------------0---2---------------|
|--------0---------------3-------|--------0-----------3-----------|
|----0-----------------------2---|----0-------------------2-------|
|2-------------------------------|2---------------------------4---|
|--------------------------------|--------------------------------|
|--------------------------------|--------------------------------|
|
|7--------------(7)--5---10--7---(7)-------------(7)--5-7-5-3-0---|
|--------------------------------|--------------------------------|
|--------------------------------|--------------------------------|
|--------------------------------|--------------------------------|
|--------------------------------|--------------------------------|
|--------------------------------|--------------------------------|


 |       |       |       |        |       |       |       |
|------------0---5---2-----------|------------0---2---------------|
|--------0---------------3-------|--------0-----------3-----------|
|----0-----------------------2---|----0-------------------2-------|
|2-------------------------------|2---------------------------4---|
|--------------------------------|--------------------------------|
|--------------------------------|--------------------------------|
|
(0)------------------------------(0)------------------------------|
|--------------------------------|--------------------------------|
|--------------------------------|--------------------------------|
|--------------------------------|--------------------------------|
|--------------------------------|--------------------------------|
|--------------------------------|--------------------------------|

 §
 |       |       |       |        |       |       |       |
|------------0---2---------------|--------------------------------|
|--------0-----------3-----------|------------1---4---------------|
o----0-------------------2-------|--------0-----------4-----------|
|2---------------------------4---|----2-------------------4-------|
o--------------------------------|3---------------------------6---|
|--------------------------------|--------------------------------|

 She    went   ...
 She    went   ...
 She    went   ...



 |       |       |       |        |       |       |       |
|------------0---2---------------|--------------------------------|
|--------0-----------3-----------|------------1---4---------------|
|----0-------------------2-------|--------0-----------4-----------|
|2---------------------------4---|----2-------------------4-------|
|--------------------------------|3---------------------------6---|
|--------------------------------|--------------------------------|

 hide    her   ...
 free    her   ...
 cast    her   ...



 |       |       |       |        |       |       |       |
|------------0---2---------------|--------------------------------|
|--------0-----------3-----------|------------1---4---------------|
|----0-------------------2-------|--------0-----------4-----------|
|2---------------------------4---|----2-------------------4-------|
|--------------------------------|3---------------------------6---|
|--------------------------------|--------------------------------|

 He    went   ...
 All   those  ...
 knew  the    ...



 |       |       |       |        |       |       |       |
|------------0---2---------------|----------------------------2---|
|--------0-----------3-----------|------------1---4-----------4---|
|----0-------------------2-------|--------0-----------4-------4---|
|2---------------------------4---|----2-------------------4---4---|
|--------------------------------|3---------------------------2---|
|--------------------------------|--------------------------------|

 con - su - mate   ...
 op  - por - tu -  ...
 break the         ...



 |       |       |       |        |       |       |       |
|3-----------3---2-----------2---|0---5---3---0-------------------|
|5-----------5---4-----------4---|0---------------3---0-----------|
|4-----------4---2-----------2---|0-----------------------2---0---|
|5-----------5---4-----------4---|2-------------------------------|
|3-----------3---2-----------2---|--------------------------------|
|--------------------------------|--------------------------------|

                                                        Then  the



 |       |       |       |        |       |       |       |
|3-----------3---3-----------5---|5-----------5---5-----------3---|
|3-----------3---3-----------7---|7-----------7---7-----------5---|
|4-----------4---4-----------7---|7-----------7---7-----------5---|
|5-----------5---5-----------7---|7-----------7---7-----------5---|
|5-----------5---5-----------5---|5-----------5---5-----------3---|
|3-----------3---3---------------|--------------------------------|

 ...



 |       |       |       |        |       |       |       |
|3-----------3---3-----------5---|5-----------5---5-----------3---|
|5-----------5---5-----------7---|7-----------7---7-----------3---|
|5-----------5---5-----------7---|7-----------7---7-----------4---|
|5-----------5---5-----------7---|7-----------7---7-----------5---|
|3-----------3---3-----------5---|5-----------5---5-----------5---|
|--------------------------------|----------------------------3---|

 works   ...



 |       |       |       |        |       |       |       |
|3-----------3---3-----------5---|5-----------5---5-----------3---|
|3-----------3---3-----------7---|7-----------7---7-----------5---|
|4-----------4---4-----------7---|7-----------7---7-----------5---|
|5-----------5---5-----------7---|7-----------7---7-----------5---|
|5-----------5---5-----------5---|5-----------5---5-----------3---|
|3-----------3---3---------------|--------------------------------|

 earth  was   ...


 |       |       |       |        |       |       |       |
|3-----------3---3-----------5---|5-----------5---5-----------3---|
|5-----------5---5-----------7---|7-----------7---7-----------3---|
|5-----------5---5-----------7---|7-----------7---7-----------4---|
|5-----------5---5-----------7---|7-----------7---7-----------5---|
|3-----------3---3-----------5---|5-----------5---5-----------5---|
|--------------------------------|----------------------------3---|

 works   ...


                                                            to coda
 |       |       |       |        |       |       |       |
|3-----------3---3-----------5---|5-----------5---5-----------3---|
|3-----------3---3-----------7---|7-----------7---7-----------5---|
|4-----------4---4-----------7---|7-----------7---7-----------5---|
|5-----------5---5-----------7---|7-----------7---7-----------5---|
|5-----------5---5-----------5---|5-----------5---5-----------3---|
|3-----------3---3---------------|--------------------------------|

 sound   ...


                                +----------------------------------
                                | 1.
 |       |       |       |        |       |       |       |
|3-----------3---3-----------5---|5-----------5---5-----------0---|
|5-----------5---5-----------7---|7-----------7---7-----------0---|
|5-----------5---5-----------7---|7-----------7---7-----------0---|
|5-----------5---5-----------7---|7-----------7---7-----------2---|
|3-----------3---3-----------5---|5-----------5---5-----------2---|
|--------------------------------|--------------------------------|

 works   ...


-------------------------------------------------------------------
 |       |       |       |        |       |       |       |
(0)----------0---5---------------|------------0---2---------------|
(0)------0-----------7-----------|--------0-----------3-----------|
(0)--0-------------------7-------|----0-------------------2-------|
|2---------------------------7---|2---------------------------4---|
(2)------------------------------|--------------------------------|
|--------------------------------|--------------------------------|
|
|--------------------12--10------|7---------------7---5---10------|
|--------------------------------|----------------------------12--|
|--------------------------------|--------------------------------|
|--------------------------------|--------------------------------|
|--------------------------------|--------------------------------|
|--------------------------------|--------------------------------|


------------------------------------------------------------------+
 |       |       |       |        |       |       |       |
|------------0---5---2-----------|------------0---2---------------|
|--------0---------------3-------|--------0-----------3-----------|
|----0-----------------------2---|----0-------------------2-------o
|2-------------------------------|2---------------------------4---|
|--------------------------------|--------------------------------o
|--------------------------------|--------------------------------|
|
|----12--------------------------(12)-----------------------------|
(12)-----------------------------(12)-----------------------------|
|--------------------------------|--------------------------------o
|--------------------------------|--------------------------------|
|--------------------------------|--------------------------------o
|--------------------------------|--------------------------------|


+------------------------------------------------------------------
| 2.
 |       |       |       |
|5-----------5---5-----------2---|
|7-----------7---7---------------|
|7-----------7---7-----------2---|
|7-----------7---7---------------|
|5-----------5---5---------------|
|--------------------------------|

                       blazing red



 |       |       |       |        |       |       |       |
|------------3---2-----------2---|3---2---0-------------------2---|
|8-----------0-------------------|0-----------3---2---------------|
|----------------2-----------2---|----2---0-------------------2---|
|9-------------------------------|------------4---2---------------|
|--------------------------------|--------------------------------|
|--------------------------------|--------------------------------|


|       |       |       |        |       |       |       |
|------------3---2-----------2---|3---2---0-------2-----------2---|
|8-----------0-------------------|0-----------3---4-----------4---|
|----------------2-----------2---|----2---0-------4-----------4---|
|9-------------------------------|------------4-------------------|
|--------------------------------|--------------------------------|
|--------------------------------|--------------------------------|


 |       |       |       |        |       |       |       |
|0-----------0---0-----------0---|0---3---5---7---5-----------5---|
|0-----------0---2-----------2---|0---------------5-----------5---|
|0-----------0---2-----------2---|0---------------6-----------6---|
|2-----------2---2-----------2---|2---------------7-----------7---|
|----------------0-----------0---|--------------------------------|
|--------------------------------|--------------------------------|


 |       |       |       |        |       |       |       |
|10--------------10----------3---|7-----------5-----------3-------|
|12--------------12--0---3-------|----0---3-------0---3-----------|
|12--------------12--------------|--------------------------------|
|----------------12--------------|--------------------------------|
|----------------10--------------|--------------------------------|
|--------------------------------|--------------------------------|


 |       |       |       |        |       |       |       |
|------------0---5---------------|------------0---2---------------|
|--------0-----------7-----------|--------0-----------3-----------|
|----0-------------------7-------|----0-------------------2-------|
|2---------------------------7---|2---------------------------4---|
|--------------------------------|--------------------------------|
|--------------------------------|--------------------------------|
|
|0-------------------------------|0-------------------------------|
|--------------------------------|--------------------------------|
|--------------------------------|--------------------------------|
|--------------------------------|--------------------------------|
|--------------------------------|--------------------------------|
|--------------------------------|--------------------------------|


                                                       D.§. al Coda
 |       |       |       |        |       |       |       |
|------------0---5---2-----------|------------0---2---------------|
|--------0---------------3-------|--------0-----------3-----------|
|----0-----------------------2---|----0-------------------2-------|
|2-------------------------------|2---------------------------4---|
|--------------------------------|--------------------------------|
|--------------------------------|--------------------------------|
|
|12------------------------------|12------------------------------|
|--------------------------------|--------------------------------|
|--------------------------------|--------------------------------|
|--------------------------------|--------------------------------|
|--------------------------------|--------------------------------|
|--------------------------------|--------------------------------|



coda
|       |       |       |        |       |       |       |
|3-----------3---3-----------5---|5-----------5---5-----------3---|
|5-----------5---5-----------7---|7-----------7---7-----------3---|
|5-----------5---5-----------7---|7-----------7---7-----------4---|
|5-----------5---5-----------7---|7-----------7---7-----------5---|
|3-----------3---3-----------5---|5-----------5---5-----------5---|
|--------------------------------|----------------------------3---|

 works   ...


 |       |       |       |        |       |       |       |
|3-----------3---3-----------5---|5-----------5---5-----------3---|
|3-----------3---3-----------7---|7-----------7---7-----------5---|
o4-----------4---4-----------7---|7-----------7---7-----------5---|
|5-----------5---5-----------7---|7-----------7---7-----------5---|
o5-----------5---5-----------5---|5-----------5---5-----------3---|
|3-----------3---3---------------|--------------------------------|

 lightning   ...
 earth  was  ...



 |       |       |       |        |       |       |       |
|3-----------3---3-----------5---|5-----------5---5-----------3---|
|5-----------5---5-----------7---|7-----------7---7-----------3---|
|5-----------5---5-----------7---|7-----------7---7-----------4---o
|5-----------5---5-----------7---|7-----------7---7-----------5---|
|3-----------3---3-----------5---|5-----------5---5-----------5---o
|--------------------------------|----------------------------3---|

 works   ...
 works   ...

(fade out)

I want to post or [tab]
guest
You may want to rate the tab now too:
select rating
Please do not post tabs as comments. Select "correction" instead!