Oops, an error
Loading. Please wait.

Flaming Telepaths Tab

1,955 views 3 this week
no commentswrite comment
1 2 3 4 5
excellent!
x 1
Autoscroll
+/-
esc
set tempo
stop
Contributor
WARNING: You are trying to view
                                    content from Ultimate-Guitar.com
                                    in an unauthorized application,
                                    which is prohibited.

                                    Please use an official Ultimate
                                    Guitar Tabs application for iPhone,
                                    iPad or Android to access legitimate
                                    chords, guitar, bass, and drum tabs
                                    from Ultimate-Guitar.com database.

                                    Type "ultimate guitar tabs" in Apple
                                    App Store's or Android Market's
                                    search to find the application.
-------------------------------------------------------------------------------
			     Flaming Telepaths - Blue Öyster Cult
-------------------------------------------------------------------------------
Tabbed by: Blooker

Key:

************************************

| /   slide up
| \   slide down
| h   hammer-on
| p   pull-off
| ~   vibrato
| +   harmonic
| x   Mute note
| b   Bend
| pb  Pre-bend
| br  Bend release
| pbr Pre-bend release
| brb Bend release bend

************************************

2.48...

e|-----------------------------------5---5b--5------------------------------------|
B|---------------------------7p5-7-8---8-------8--5-5--8--5-5~--------------------|
G|------------7--7p5-7--7s9-------------------------------------------------------|
D|----5--7s9----------------------------------------------------------------------|
A|-7------------------------------------------------------------------------------|
E|--------------------------------------------------------------------------------|

e|-------------------------------10--10p9--8p7----7--7s12-------------------------|
B|-5--8--5--5--8b--10b--10-8-------------------11---------------------------------|
G|--------------------------------------------------------------------------------|
D|--------------------------------------------------------------------------------|
A|--------------------------------------------------------------------------------|
E|--------------------------------------------------------------------------------|

e|-15p14--12----------------------------------------------------------------------|
B|------------15-12------------------------15b--15-12-15---12h15p12-----12--------|
G|------------------14-14brp12-14p12-14------------------------------14-----------|
D|--------------------------------------------------------------------------------|
A|--------------------------------------------------------------------------------|
E|--------------------------------------------------------------------------------|

					           (play soft) \/			
e|--------------------------------------------------------------------------------|
B|--------------------------------------------------------------------------------|
G|-14b--12h14p12-12-14-12----12----------------------------------------12---------|
D|------------------------14-----16-14-12---------------------------12------------|
A|----------------------------------------14-13-12-12------12----12---------------|
E|------------------------------------------------------------12------------------|

e|----14-15b---15-14-12-s11--11-12~--------------------12p11-----12p11----12-12s14-14~---------|
B|-12---------------------------------s13-12--10-12~----------12-------12----------------------|
G|---------------------------------------------------------------------------------------------|
D|---------------------------------------------------------------------------------------------|
A|---------------------------------------------------------------------------------------------|
E|---------------------------------------------------------------------------------------------|

e|-14pbr11--11-12~-----11s12--12-15-12-15-17b-17br---15p14---14h15p14----14--------|
B|--------------------------------------------------------------------17----16-17--|
G|---------------------------------------------------------------------------------|
D|---------------------------------------------------------------------------------|
A|---------------------------------------------------------------------------------|
E|---------------------------------------------------------------------------------|


e|-15----15-17br--14--15s20-20-20-19-19-19-19-22-22-22-22-20-20-20-20s19-----------|
B|----17---------------------------------------------------------------------------|
G|---------------------------------------------------------------------------------|
D|---------------------------------------------------------------------------------|
A|---------------------------------------------------------------------------------|
E|---------------------------------------------------------------------------------|

e|-17-19--15-17p15-15-14h15p14----14-----------------------------------------------|
B|-----------------------------17----17---16h17p16-15-16-17--16h17p16-15-16--------|
G|---------------------------------------------------------------------------------|
D|---------------------------------------------------------------------------------|
A|---------------------------------------------------------------------------------|
E|---------------------------------------------------------------------------------|

e|-17b-17b-17b-17b-17b-17b-----17b--------17b--------------------------------------|
B|---------------------------------------------------------------------------------|
G|---------------------------------------------------------------------------------|
D|---------------------------------------------------------------------------------|
A|---------------------------------------------------------------------------------|
E|---------------------------------------------------------------------------------|


(ENDSOLO)

4.21...

e|---------------------------------------------------------------------------------------------|
B|-----------------------------------------------------s5--5-5-4-5-4-5-5-5s7-------------------|
G|-------------------------------------------5-5--5-4------------------------------------------|
D|-7--7s9--10--9---7--7s9--10--9------s7--7----------------------------------------------------|
A|---------------------------------------------------------------------------------------------|
E|---------------------------------------------------------------------------------------------|

e|---------------------------------------------------------------------------------------------|
B|-7-7-7s8--7-8---------------------------s8-7-8-s10-7-8--12--13-13p12-10-12-s10-8-7-----------|
G|--------------8-9----------------8-8s9-------------------------------------------------------|
D|------------------9-10------9-10-------------------------------------------------------------|
A|-----------------------9-10------------------------------------------------------------------|
E|---------------------------------------------------------------------------------------------|

e|---------------------------------------------------------------------------------------------|
B|-7h8p7---7-----7--8--10---10s12-12-12-12-10-10-10-10-10s8-8-8-8-8s7-7-7-7h8p7---7-----7-8-10-|
G|-------9---8-9----------------------------------------------------------------9----9---------|
D|---------------------------------------------------------------------------------------------|
A|---------------------------------------------------------------------------------------------|
E|---------------------------------------------------------------------------------------------|

e|----10----10----10----10----10----10--12--12-12-12s14-14-15--14-14-15~-----------------------|
B|-12----12----12----12----12----12------------------------------------------------------------|
G|---------------------------------------------------------------------------------------------|
D|---------------------------------------------------------------------------------------------|
A|---------------------------------------------------------------------------------------------|
E|---------------------------------------------------------------------------------------------|

e|--15p14p12-14-12-11-12-11h12p11-----11-------------------------------------------------------|
B|---------------------------------12----12-10h12p10-8-10-10p8-7-8-8p7-5-7-7p5-4-5-------------|
G|---------------------------------------------------------------------------------------------|
D|---------------------------------------------------------------------------------------------|
A|---------------------------------------------------------------------------------------------|
E|---------------------------------------------------------------------------------------------|

e|----------------------------------------------------------------------------------------8-7~-|
B|--4-5---4-----------------------------------------------------------------------------8------|
G|------5---4-5-2-4-------------------------------------------------------------------9--------|
D|------------------5-7-4-5-2-4----------------------------------------------------------------|
A|------------------------------6-7-3-5-2-3----------------------------------------------------|
E|-------------------------------------------3s5-5-5-5-5-3-5s7-7-7-7-7-7-7-7-8-8-8-8-----------|

e|------------------------------------------------------------------------------|
B|-17-17p16p13-13-16--17-17p16p13-13-16--17-17p16p13-13-16--17-17p16p13-13-16---|
G|------------------------------------------------------------------------------|
D|------------------------------------------------------------------------------|
A|------------------------------------------------------------------------------|
E|------------------------------------------------------------------------------|


e|--------------------------14-----14--14b-14----14b-14-------------------------|
B|-17-17p16p13-13-16-17-16b----16b------------17--------17-16-16-17~------------|
G|------------------------------------------------------------------------------|
D|------------------------------------------------------------------------------|
A|------------------------------------------------------------------------------|
E|------------------------------------------------------------------------------|

e|-17-15-17-17b-17-15-14h15p14---14-------15-17b-17-15-14/----------------------|
B|-----------------------------17---16-17---------------------------------------|
G|------------------------------------------------------------------------------|
D|------------------------------------------------------------------------------|
A|------------------------------------------------------------------------------|
E|------------------------------------------------------------------------------|

cheers!
comments
We did not receive enough feedback on this tab! Please rate:
1 2 3 4 5
I want to post or [tab]
guest
You may want to rate the tab now too:
select rating
Please do not post tabs as comments. Select "correction" instead!