Oops, an error
Loading. Please wait.

Godzilla Tab

ver3
ver3

Whole song

Interactive

More versions @911Tabs.com
132,010 views 267 this week
33 commentsread comments
1 2 3 4 5
excellent!
x 37
Autoscroll
+/-
esc
set tempo
stop
Hey! There's an official Ultimate Guitar app which is ideal
for learning songs when you're away from computer. Get the app
WARNING: You are trying to view
                                    content from Ultimate-Guitar.com
                                    in an unauthorized application,
                                    which is prohibited.

                                    Please use an official Ultimate
                                    Guitar Tabs application for iPhone,
                                    iPad or Android to access legitimate
                                    chords, guitar, bass, and drum tabs
                                    from Ultimate-Guitar.com database.

                                    Type "ultimate guitar tabs" in Apple
                                    App Store's or Android Market's
                                    search to find the application.
                                    GODZILLA 
                         As recorded by Blue Oyster Cult
                  (From the 1978 Album SOME ENCHANTED EVENING)

Words and Music by Donald Roeser

     F#5                  B5                   C#5                   C
 2 4 4 x x x          x 2 4 4 x x          x 4 6 6 x x          4 6 6 x x x

     A5                   D#5                  E5                  B5VII
 5 7 7 x x x          x 6 8 8 x x          x 7 9 9 x x          7 9 9 x x x

   E5open               E7sus4               F#7sus4                G#5
 0 2 2 x x x          0 0 0 x x x          2 2 2 x x x          4 6 6 x x x

Gtr I (E A D G B E) - 'Dist w/panned delay'
Gtr II (E A D G B E) - 'Dist'
Gtr III (E A D G B E) - 'Untitled'

   Intro
    Moderate Rock Q=90
    F#5  BCG#5A5   DEB5VIIF#5                     BCG#5A5
   4/4
    Gtr I
    |    |||  |    |||    |                       |||
    /    ///  /    ///    /                       ///

    Gtr II
                                               ~~~~
||----------|----------||---12b14==(12)r(12)-(12)----|
||o---------|---------o||----------------------------|
||----------|----------||----------------------------|
||----------|----------||----------------------------|
||o---------|---------o||----------------------------|
||----------|----------||----------------------------|
|
|   Gtr III
|                                              ~~~~
||----------|----------||----------------------------|
||o---------|---------o||----------------------------|
||----------|----------||----9b11===(9)r=(9)--(9)----|
||----------|----------||----------------------------|
||o---------|---------o||----------------------------|
||----------|----------||----------------------------|


                          DEB5VII
  |                       |||
  /                       ///

                       ~~~~
|---12b14==(12)r(12)-(12)-----|
|-----------------------------|
|-----------------------------|
|-----------------------------|
|-----------------------------|
|-----------------------------|
|
|                      ~~~~
|-----------------------------|
|-----------------------------|
|----9b11===(9)r=(9)--(9)-----|
|-----------------------------|
|-----------------------------|
|-----------------------------|


  F#5                      B5C#G#5
  Gtr I
|--------------------------------|
|--------------------------------|
|--------------------------4-6---|
|-4------------------------4-6-6-|
|-4------------------------2-4-6-|
|-2----------------------------4-|
|
| Gtr II
|                       ~~~~
|----12b14==(12)r(12)-(12)-------|
|--------------------------------|
|--------------------------------|
|--------------------------------|
|--------------------------------|
|--------------------------------|
|
| Gtr III
|                       ~~~~
|--------------------------------|
|--------------------------------|
|-----9b11===(9)r=(9)--(9)-------|
|--------------------------------|
|--------------------------------|
|--------------------------------|


                                   Verse I
  A5                       EbE5B5   F#5   B5C#G#5 A5    EbE5B5
|--------------------------------||-------------|--------------|
|--------------------------------||-------------|--------------|
|--------------------------8-9---||-------4-6---|-------8-9----|
|-7------------------------8-9-9-||-4-----4-6-6-|-7-----8-9-9--|
|-7------------------------6-7-9-||-4-----2-4-6-|-7-----6-7-9--|
|-5----------------------------7-||-2---------4-|-5---------7--|
|
|                       ~~~~
|----12b14==(12)r(12)-(12)-------||-------------|--------------|
|--------------------------------||-------------|--------------|
|--------------------------------||-------------|--------------|
|--------------------------------||-------------|--------------|
|--------------------------------||-------------|--------------|
|--------------------------------||-------------|--------------|
|
|                       ~~~~
|--------------------------------||-------------|--------------|
|--------------------------------||-------------|--------------|
|-----9b11===(9)r=(9)--(9)-------||-------------|--------------|
|--------------------------------||-------------|--------------|
|--------------------------------||-------------|--------------|
|--------------------------------||-------------|--------------|


  F#5            B5C#G#5 A5      EbE5B5
|----------------------|---------------|
|----------------------|---------------|
|----------------4-6---|---------8-9---|
|-4--------------4-6-6-|--7------8-9-9-|
|-4--------------2-4-6-|--7------6-7-9-|
|-2------------------4-|--5----------7-|
|
| Gtr II
|----------------------|---------------|
|----------------------|-15s===6-------|
|---/2--(2)--(2)s======|=15s===6-------|
|---/2--(2)-/(2)-------|---------------|
|----------------------|---------------|
|----------------------|---------------|


  F#5   B5C#G#5 A5    EbE5B5
|-------------|-------------|
|-------------|-------------|
|-------4-6---|-------8-9---|
|-4-----4-6-6-|-7-----8-9-9-|
|-4-----2-4-6-|-7-----6-7-9-|
|-2---------4-|-5---------7-|
|
|-------------|-------------|
|-------------|-------------|
|-------------|-------------|
|-------------|-------------|
|-------------|-------------|
|-------------|-------------|


  F#5                                              B5           C#5  G#5
|--------------------------------------------------------------------------|
|--------------------------------------------------------------------------|
|---------------------------------------------------4-------------6--------|
|-4-------------------------------------------------4-------------6---6----|
|-4-------------------------------------------------2-------------4---6----|
|-2-------------------------------------------------------------------4----|
|
|-------------------------------------------------------------------14-----|
|---17-17-17b19==(17)-17-(17)-17-(17)-17-(17)r(17)-17-17-------------------|
|--------------------------------------------------------16b18==(16)---16r-|
|--------------------------------------------------------------------------|
|--------------------------------------------------------------------------|
|--------------------------------------------------------------------------|


  A5                     EbE5B5  F#5     B5C#G#5 A5    EbE5B5
|------------------------------|---------------|-------------|
|------------------------------|---------------|-------------|
|------------------------8-9---|---------4-6---|-------8-9---|
|---7--------------------8-9-9-|--4------4-6-6-|-7-----8-9-9-|
|---7--------------------6-7-9-|--4------2-4-6-|-7-----6-7-9-|
|---5------------------------7-|--2----------4-|-5---------7-|
|
|                   ~~
|------------------------------|---------------|-------------|
|------------------------------|---------------|-------------|
|-(16)-14----16-14-------------|---------------|-------------|
|---------16-------16-16S2---4-|-(4)-----------|-------------|
|------------------------------|---------------|-------------|
|------------------------------|---------------|-------------|


  F#5                                   B5       C#5G#5
|-------------------------------------------------------|
|-------------------------------------------------------|
|----------------------------------------4--------6-----|
|-4--------------------------------------4--------6--6--|
|-4--------------------------------------2--------4--6--|
|-2--------------------------------------------------4--|
|
|    PM------------|            PM------------|   ~~
|-------------------------------------------------------|
|-------------------------------------------------------|
|---------------------14b14.5--------------------14-----|
|------------14-14-16----------------14-14-14-16----16\-|
|---14-15-16-------------------14-16--------------------|
|-------------------------------------------------------|


  A5                                               Eb5      E5         B5
|-------------------------------------------------------------------------||
|-------------------------------------------------------------------------||
|---------------------------------------------------8--------9------------||
|-7-------------------------------------------------8--------9----------9-||
|-7-------------------------------------------------6--------7----------9-||
|-5---------------------------------------------------------------------7-||
|
|  PM------------|
|-------------------------------------------------------------------------||
|--------------------------------------------------14---------------------||
|------------------14-16-14-16b17-(16)pb18-(16)-16-14-16-14b15-(14)-------||
|----------14-15-16-------------------------------------------------16-14-||
|-14-15-16----------------------------------------------------------------||
|-------------------------------------------------------------------------||


 Chorus
  E5          D5E5               D5/E      E5    D5E5      D5/EF#5
|----------------------------------------|-------------------|
|----------------------------------------|-------------------|
|----------------------------------------|-------------------|
|---2----2--2-0-2---2-----2-------0------|-2-2-2-0-2-2--2--0-|
|---2----2--2-0-2---2-----2-------0------|-2-2-2-0-2-2--2--0-|
|---0----0--0-0-0---0-----0-------0------|-0-0-0-0-0-0--0--0-|
|
|        ~~~~
|-----------------3-2-0---0--------------|-------------------|
|-----------------------0----------------|-------------------|
|-----------------------0---4b6==(4)r4p2-|-------------------|
|-(14)-(14)------------------------------|-2-----------(2)---|
|----------------------------------------|-2-----------(2)---|
|----------------------------------------|-0-----------(0)---|


              E5/F#       F#5             E5/F#
|---------------------------------------------|
|---------------------------------------------|
|---------------------------------------------|
|-4-4------4--2------------4--4---4-------2---|
|-4-4------4--2------------4--4---4-------2---|
|-2-2------2--2------------2--2---2-------2---|
|
|---2---------2-------------------------------|
|---2---------2-------------------------------|
|-----4b6-(4)---4pb6==(4)r(4)-2---2b3-(2)-----|
|-------------------------------4---------4---|
|-------------------------------------------4-|
|---------------------------------------------|


  F#5        E5/FF#5                  E5/F#
|---------------------------------------------|
|---------------------------------------------|
|---------------------------------------------|
|-4---4---4--2---4--4-------4----------2------|
|-4---4---4--2---4--4-------4----------2------|
|-2---2---2--2---2--2-------2----------2------|
|
|------------------------------2--------------|
|----------------2----------------------------|
|-2-2---2-2--2-2-2--4-4b6==(4)---4pb6-(4)r(4)-|
|-2-2---2-2--2-2------------------------------|
|-----4---------------------------------------|
|---------------------------------------------|


  E5      D5E5            D5/E        E5    D5E5    D5/E
|-----------------------------------|------------------|
|-----------------------------------|------------------|
|-----------------------------------|------------------|
|--2--2-2-0-2-2----2-------0--------|-2-2-2-0-2-2-2-0--|
|--2--2-2-0-2-2----2-------0--------|-2-2-2-0-2-2-2-0--|
|--0--0-0-0-0-0----0-------0--------|-0-0-0-0-0-0-0-0--|
|
|                                     ~
|------------------0----------------|------------------|
|-------------9\-x------------------|------------------|
|-(4)---------9\-----2b4==(2)r(2)p0-|------------------|
|-------------9\--------------------|-2----------------|
|-----------------------------------|------------------|
|-----------------------------------|------------------|


  F#5     E5F#5      E5/FF#5
|----------------------|
|----------------------|
|----------------------|
|-4-4-4---2-4--4---4-2-|
|-4-4-4---2-4--4---4-2-|
|-2-2-2---2-2--2---2-2-|
|
|---2-2-2---2----2-----|
|---2-2-2---2----2-----|
|----------------------|
|----------------------|
|----------------------|
|----------------------|


                 E5/F#   F#5                        E5/F#
|---------------------------------------------------------||
|---------------------------------------------------------||
|---------------------------------------------------------||
|-4----4----4----2---------4---4------------4--------2----||
|-4----4----4----2---------4---4------------4--------2----||
|-2----2----2----2---------2---2------------2--------2----||
|
|---------------------------------------------------------||
|------------------10b11-(10)------12b14==(12)r(12)p10----||
|----------------9------------11-9---------------------11-||
|--------9-10-11------------------------------------------||
|---9-12--------------------------------------------------||
|---------------------------------------------------------||





 Guitar Solo
  F#5                                        B5       C#5      G#5
|--------------------------------------------------------------------------|
|--------------------------------------------------------------------------|
|---------------------------------------------4--------6-------------------|
|---4-----------------------------------------4--------6--------6----------|
|---4-----------------------------------------2--------4--------6----------|
|---2-----------------------------------------------------------4----------|
|
|   ~~~~~
|-----17b19==(17)r(17)b18r(17)-14-17p14-17p14---14-------------------------|
|---------------------------------------------17--17-14-17-14------------14|
|(11)\--------------------------------------------------------16b18-(16)---|
|--------------------------------------------------------------------------|
|--------------------------------------------------------------------------|
|--------------------------------------------------------------------------|


         A5                                               Eb5      E5       B5
|--------------------------------------------------------------------------|
|--------------------------------------------------------------------------|
|--------------------------------------------------8--------9--------------|
|---7----------------------------------------------8--------9--------9-----|
|---7----------------------------------------------6--------7--------9-----|
|---5----------------------------------------------------------------7-----|
|
|------------------------------------------------------------|
|------------------------------------------------------------|
|16b18==(16)r(16)p14-16p14-16p14--14-------------------------|
|-------------------------------16---16p14-16p14--14---------|
|-----------------------------------------------16---16s14---|
|------------------------------------------------------------|

|-----------------------|
|-----------------------|
|-----------------------|
|-----------------------|
|-12-14p12-14p12b14-(12)|
|-----------------------|

  F#5                     B5  C#5       G#5
|---------------------------------------------|
|---------------------------------------------|
|--------------------------4---6--------------|
|--4-----------------------4---6---------6----|
|--4-----------------------2---4---------6----|
|--2-------------------------------------4----|
|
|-------------------------------------------2-|
|---------------------------------2---------2-|
|-----------------------2-(2)-(2)-2-4b6-(4)---|
|---------------2-3-4-2-----------------------|
|---------2-3-4-------------------------------|
|-14--4s5-------------------------------------|


        A5                                  Eb5     E5  B5
|-------------------------------------------------------------|
|-------------------------------------------------------------|
|-------------------------------------------8--------9--------|
|--------7----------------------------------8--------9--9-----|
|--------7----------------------------------6--------7--9-----|
|--------5----------------------------------------------7-----|
|
|                                                           ~
|-------------------------2-------------------2---------------|
|-------------------------2-------------------2---------------|
|-4pb6==(4)r4p2-4p2-4p2-----4b6-(4)-4-2-4-2-----4b6-(4)-4-2---|
|-----------------------4-------------------4---------------4-|
|-------------------------------------------------------------|
|-------------------------------------------------------------|


  F#5                 B5    C#5        G#5
|-------------------------------------------|
|-------------------------------------------|
|---------------------4------6--------------|
|--4------------------4------6-----------6--|
|--4------------------2------4-----------6--|
|--2-------------------------------------4--|
|
|  ~~~~~~~~~~~~~~~~
|-------------------------------------------|
|--------------------------------12b14-(12)-|
|------------------11---h11-11p9------------|
|-(4)-4-(4)-4-(4)/--------------------------|
|-------------------------------------------|
|-------------------------------------------|


  A5               Eb5    E5  B5
|-----------------------------------|
|-----------------------------------|
|------------------8-------9--------|
|--7---------------8-------9--9-----|
|--7---------------6-------7--9-----|
|--5--------------------------7-----|
|
|-----------------------------------|
|-12-2---2-2---2-2------------------|
|----2-4-2-2-4-2-2-4-4b6==(4)r4p(2)-|
|------4-----4----------------------|
|-----------------------------------|
|-----------------------------------|


  F#5                       B5    C#5         G#5
|--------------------------------------------------|
|--------------------------------------------------|
|----------------------------4-----6---------------|
|-4--------------------------4-----6----------6----|
|-4--------------------------2-----4----------6----|
|-2-------------------------------------------4----|
|
|--------------------------------------------------|
|---------------------------17p14-17b19==(17)r==17-|
|------------------------14------------------------|
|-4S16p14-16p14-16p14-16-14------------------------|
|--------------------------------------------------|
|--------------------------------------------------|


          A5                                                                              Eb5             E5              B5
|-------------------------------------------------------------------------||
|-------------------------------------------------------------------------||
|--------------------------------------------8---------------9------------||
|---7----------------------------------------8---------------9------9-----||
|---7----------------------------------------6---------------7------9-----||
|---5---------------------------------------------------------------7-----||
|
|---------------------------------------------------------------------------------------------------------------------------------||
|-17pb19==(17)r17-17pb19==(17)r17-17pb19==(17)r17-17pb19==(17)r17-17pb19==(17)r17-17pb19==(17)r17-17pb19==(17)r17-17pb19==(17)r17-||
|---------------------------------------------------------------------------------------------------------------------------------||
|---------------------------------------------------------------------------------------------------------------------------------||
|---------------------------------------------------------------------------------------------------------------------------------||
|---------------------------------------------------------------------------------------------------------------------------------||

 Chorus
  E5       D5E5               D5/E        E5    D5E5    D5/E
|---------------------------------------|-----------------|
|---------------------------------------|-----------------|
|---------------------------------------|-----------------|
|---2--2-2-0-2---2-----2-------0--------|-2-2-2-0-2-2-2-0-|
|---2--2-2-0-2---2-----2-------0--------|-2-2-2-0-2-2-2-0-|
|---0--0-0-0-0---0-----0-------0--------|-0-0-0-0-0-0-0-0-|
|
|--------------3-2-0--------------------|-----------------|
|-(17)-----------------0----------------|-----------------|
|--------------------0---2b4==(2)r(2)p0-|-----------------|
|---------------------------------------|-2---------------|
|---------------------------------------|-2---------------|
|---------------------------------------|-0---------------|


         F#5                E5/F# F#5               E5/F#
|----------------------------------------------------------|
|----------------------------------------------------------|
|----------------------------------------------------------|
|----------4-----4-----4-----2-----4-----4-----4-----2-----|
|----------4-----4-----4-----2-----4-----4-----4-----2-----|
|----------2-----2-----2-----2-----2-----2-----2-----2-----|
|
|                                     PM
|-18b21==(18)r18-------------------------------------------|
|---------------------17-16-14-----------------------------|
|------------------18----------17-16-14-16-17-15-----------|
|------------------------------------------------16--------|
|---------------------------------------------------16-15--|
|----------------------------------------------------------|


  F#5               E5/F# F#5                   E5/F#
|-----------------------------------------------------|
|-----------------------------------------------------|
|-----------------------------------------------------|
|--4-----4-----4-----2----4-----4----------4-----2----|
|--4-----4-----4-----2----4-----4----------4-----2----|
|--2-----2-----2-----2----2-----2----------2-----2----|
|
|---------------------------14-16b18-(16)-16p14-------|
|-----------------------------------------------16p14-|
|----------------------13-----------------------------|
|-------16----------14--------------------------------|
|-14s13-------13-16-----------------------------------|
|----------14-----------------------------------------|


  E5     D5/E5                   D5/E        E5    D5E5    D5/E
|------------------------------------------|-----------------|
|------------------------------------------|-----------------|
|------------------------------------------|-----------------|
|--2-2-2-0--2---2-----2-----------0--------|-2-2-2-0-2-2-2-0-|
|--2-2-2-0--2---2-----2-----------0--------|-2-2-2-0-2-2-2-0-|
|--0-0-0-0--0---0-----0-----------0--------|-0-0-0-0-0-0-0-0-|
|
|  ~~
|-------------3-2-0------------------------|-----------------|
|-17---------------------------------------|-----------------|
|-------------------0-4-2b4==(2)-(2)r(2)-0-|-----------------|
|------------------------------------------|-----------------|
|------------------------------------------|-----------------|
|------------------------------------------|-0---------------|


  F#5                E5/F#    F#5           E5/F#
|-------------------------------------------------|
|-------------------------------------------------|
|-------------------------------------------------|
|-4----------4--4-----2---------4---4-----4--2----|
|-4----------4--4-----2---------4---4-----4--2----|
|-2----------2--2-----2---------2---2-----2--2----|
|
|-------------------------------------------------|
|---17----17---17-17----17----(17)----------------|
|---16b18-16---16-14-16-14b15-(14)----------------|
|----------------------------------16-14-16-16p14-|
|-------------------------------------------------|
|-------------------------------------------------|


                                              Interlude
  F#5            E5/F# F#5            E        F#
                                                ~~~~~~~~~~~~~~~~
|-------------------------------------------||-----------|-----------|
|-------------------------------------------||-----------|-----------|
|-------------------------------------------||-----------|-----------|
|--4--4-----4-----2-----4--4-----4-----2----||--4--------|--(4)------|
|--4--4-----4-----2-----4--4-----4----------||-----------|-----------|
|--2--2-----2-----2-----2--2-----2----------||-----------|-----------|
|
|                                               ~~~~~~~~~~~~~~~~
|-------------------------------------------||-----------|-----------|
|-------------------------------------------||-----------|-----------|
|----------14-------------------16p14-------||-----------|-----------|
|-16-16-14----16-16p14-16-16-14-------16p14-||-16--------|-(16)------|
|-------------------------------------------||-----------|-----------|
|-------------------------------------------||-----------|-----------|


  N.C.
|---------|----------|------------------------------|
|---------|----------|-------2----------------------|
|---------|----------|-------2b3-(2)----------------|
|---------|----------|-2-3-4---------4---2-3-4-4----|
|---------|--------4-|-----------------4----------4-|
|---------|----------|------------------------------|


                            E5
 3/4
|------------------------------||
|------------------------------||
|-------2b2.5-(2)--------------||
|-2-3-4-----------4-3-------2--||
|---------------------4-3-2-2--||
|---------------------------0--||


 Chorus
          D5E5                        D5/E
 4/4
|---------------------------------------------------|
|---------------------------------------------------|
|---------------------------------------------------|
|-(2)-2-2-0-2------------2---------2--0-------------|
|-(2)-2-2-0-2------------2---------2--0-------------|
|-(0)-0-0-0-0------------0---------0--0-------------|
|
| Gtr II
|---------------------------------------------------|
|---------------------------------------------------|
|-------------14b16-(14)---14b16-(14)---14b16==(14)-|
|---------------------------------------------------|
|---------------------------------------------------|
|---------------------------------------------------|


  E5                D5E5                         D5/E              F#5           E5F#5       E5/F#
|----------------------------------------------------------------|--------------------------------|
|----------------------------------------------------------------|--------------------------------|
|----------------------------------------------------------------|--------------------------------|
|---2-----------2-2-0-2------------2----------2----0-------------|---4---4-----4-2-4-4--4----2----|
|---2-----------2-2-0-2------------2----------2----0-------------|---4---4-----4-2-4-4--4----2----|
|---0-----------0-0-0-0------------0----------0----0-------------|---2---2-----2-2-2-2--2----2----|
|
|               ~~                                                             ~~
|----------------------------------------------------------------|--------------------------------|
|----------------------------------------------------------------|--------------------------------|
|-(14)r(14)p12----------14b16-(14)---14b16==(14)r(14)-16b18-(16)-|-(16)-16-14----------14---------|
|--------------14------------------------------------------------|------------16----------16p==14-|
|----------------------------------------------------------------|--------------------------------|
|----------------------------------------------------------------|--------------------------------|


        F#5                   E5/F# F#5            E5/F#
|--------------------------------------------------------|
|--------------------------------------------------------|
|--------------------------------------------------------|
|---------4----------4---4-----2-----4--4-----4-----2----|
|---------4----------4---4-----2-----4--4-----4-----2----|
|---------2----------2---2-----2-----2--2-----2-----2----|
|
|--------------------------------------------------------|
|--------------------------------------------------------|
|-16b18-(16)-16b18-(16)-16-14-------------------14-------|
|-----------------------------16-14-16-16-14-16----16-15-|
|--------------------------------------------------------|
|--------------------------------------------------------|


  E5     D5/EE5            D5/E
|-------------------------------|
|-------------------------------|
|-------------------------------|
|--2-2-2-0----2---2----2----0---|
|--2-2-2-0----2---2----2----0---|
|--0-0-0-0----0---0----0----0---|
|
|  ~~
|------------12-----10-----12---|
|-------------------------------|
|----------9----9-9----9-9----9-|
|-14----------------------------|
|-------------------------------|
|-------------------------------|


  E5                   D5/E    E5       D5/EF#5                    E5/F# F#5                  E5/F#
|-----------------------------------------|--------------------------------------------------------|
|-----------------------------------------|--------------------------------------------------------|
|-----------------------------------------|--------------------------------------------------------|
|-2-----2-----------2---0------2---2-2--0-|--4-----4-----4----------2-----4-----4-----4---------2--|
|-2-----2-----------2---0------2---2-2--0-|--4-----4-----4----------2-----4-----4-----4---------2--|
|-0-----0-----------0---0------0---0-0--0-|--2-----2-----2----------2-----2-----2-----2---------2--|
|
|                                                                               PM
|---------------------------------------|---------------------------------
|---10---------------------------9------|---------------------------------
|-9----11b13-(11)-(11)-11-9------9---9\-|-------------14b15-(14)----------------------16b17-(16)|
|---------------------------11-9-9------|-16-16-16-16------------16-14-16-16-16-16-14-----------|
|---------------------------------------|---------------------------------
|---------------------------------------|---------------------------------


  F#5            E5/F# F#5           E5/F#
|------------------------------------------||
|------------------------------------------||
|------------------------------------------||
|--4-----4-----4--2-----4--4---4-------2---||
|--4-----4-----4--2-----4--4---4-------2---||
|--2-----2-----2--2-----2--2---2-------2---||
|
|------------------------------------------||
|-------------------------17-(17)b19-(17)--||
|-16-14-16----14-16-14---------------------||
|----------16----------16------------------||
|------------------------------------------||
|------------------------------------------||


 Outro
  F#5    B5C#G#5 A5    EbE5B5    F#5   B5C#G#5
|--------------|-------------||--------------|
|--------------|-------------||o-------------|
|--------4-6---|-------8-9---||--------4-6---|
|--4-----4-6-6-|-7-----8-9-9-||--4-----4-6-6-|
|--4-----2-4-6-|-7-----6-7-9-||o-4-----2-4-6-|
|--2---------4-|-5---------7-||--2---------4-|
|
|  ~~
|-14-----------|-------------||--------------|
|--------------|-------------||o-------------|
|--------------|-------------||--------------|
|--------------|-------------||--------------|
|--------------|-------------||o-------------|
|--------------|-------------||--------------|


  A5    EbE5B5    F#5           B5C#5 G#5 A5               EbE5B5
|---------------|-----------------------|----------------------------||
|---------------|-----------------------|---------------------------o||
|-------8-9-----|---------------4--6----|------------------8-9-------||
|-7-----8-9--9--|-4-------------4--6--6-|--7---------------8-9---9---||
|-7-----6-7--9--|-4-------------2--4--6-|--7---------------6-7---9--o||
|-5----------7--|-2-------------------4-|--5---------------------7---||
|
|                            /
|                                  ~~~~~~~~~~~~~~~~~~~~~~~~~~~~~~~~~
|---------------|-----------------------|--------(12)-(12)-----(12)--||
|---------------|-----------------------|---------------------------o||
|---------------|---/9-(9)--(9)---(9)---|-(9)--9---9---(9)------(9)--||
|---------------|-----------------------|----------------------------||
|---------------|-----------------------|---------------------------o||
|-----------14\-|-----------------------|----------------------------||


  F#5   B5C#G#5 A5    EbE5B5  F#5
|-------------|-------------|--------*|
|-------------|-------------|--------*|
|-------4-6---|-------8-9---|--------*|
|-4-----4-6-6-|-7-----8-9-9-|-4------*|
|-4-----2-4-6-|-7-----6-7-9-|-4------*|
|-2---------4-|-5---------7-|-2------*|
comments
print report bad tab
33 comments total. Showing first comments.
+1 reply
Diabolic Clown wrote on August 23 2005, 12:00 am

Awesome Tab, way to go. Great song to

+1 reply
*Hippie* wrote on January 13 2006, 05:59 pm

Amazing tab man

+1 reply
ShizNick wrote on February 7 2006, 05:20 pm

Someone finally tabbed out further than the intro... good job bro

I want to post or [tab]
guest
You may want to rate the tab now too:
select rating
Please do not post tabs as comments. Select "correction" instead!