Oops, an error
Loading. Please wait.

Beetlebum Tab

by Blur
ver4
ver4

Whole song

More versions @911Tabs.com
1,215 views 1 this week
no commentswrite comment
1 2 3 4 5
not so good
x 2
Autoscroll
+/-
esc
set tempo
stop
Contributor
WARNING: You are trying to view
                                    content from Ultimate-Guitar.com
                                    in an unauthorized application,
                                    which is prohibited.

                                    Please use an official Ultimate
                                    Guitar Tabs application for iPhone,
                                    iPad or Android to access legitimate
                                    chords, guitar, bass, and drum tabs
                                    from Ultimate-Guitar.com database.

                                    Type "ultimate guitar tabs" in Apple
                                    App Store's or Android Market's
                                    search to find the application.
#----------------------------------PLEASE NOTE--------------------------------#
#This file is the author's own work and represents their interpretation of the#
#song. You may only use this file for private study, scholarship, or research.#
#-----------------------------------------------------------------------------#
#-- File created with Instab - http://www.pconline.com/~smcarey/instab.html --#
#-----------------------------------------------------------------------------#

Author/Artist: Blur
Title: Beetlebum

/ slide up
\ slide down
B Broken chords

* Play in relatively same position as tab

G1,G2,G3 Tuning (c# A D G B E)
Live Standard Tuning
Bedroom Tuning* (eb ab db gb bb eb)


-------|---------|--|---------------|--|--------------------------------------|
-------|---------|--|---------------|--|--------------------------------------|
-------|-x-x-x-x-|--|---------------|--|--------------------------------------|
-------|-x-x-x-x-|4x|---------------|8x|--------------------------------------|
-------|---------|--|---------------|--|--------------------------------------|
-------|---------|--|-15\--8--8--8--|--|--------------------------------------|
                   
 Intro  G1                    

-|-------------|--|----------------|--|------------|--|-----------|--|----------|
-|-------------|--|----------------|--|------------|--|-----------|--|----------|
-|-------------|--|----------------|--|------------|--|-----------|--|-x-x-x-x--|
-|-------------|4x|----------------|4x|------------|4x|-----------|3x|-x-x-x-x--|
-|-------------|--|----------------|--|-----3--3--3|--|-----5--5-5|--|----------|
-|-15\-8--8--8-|--|15\-11--11--11--|--|10-\-4--4--4|--|10-\-6--6-6|--|----------|

 Verse

-|---------------------------------------------------------------------------|
-|---------------------------------------------------------------------------|
-|-----2----------------5---------------2---------------4--------------------|
-|-----2----------------5---------------3---------------5--------------------|
-|---------------------------------------------------------------------------|
-|---------------------------------------------------------------------------|

 Verse Pt. 2

------|-5--5--9--9--9--9--9--9--9--|------------------------------------------|
------|-5--5--5--5--5--5--5--5--5--|------------------------------------------|
------|-x--x--x--x--x--x--x--x--x--|------------------------------------------|
------|-7--7--7--7--7--7--7--7--7--|------------------------------------------|
------|----------------------------|------------------------------------------|
------|----------------------------|------------------------------------------|

 Prechorus Arpeggios

------|-----------------------------|
------|-5---3---5---1---5---1---1---|
------|-5---4---5---2---5---2---1---|
------|-5---5---7---3---7---3-------|
------|-3---------------------------|
------|-----------------------------|

 Chorus Arpeggio Strum   


------|-----|--|------------------------------------------------|
------|-5---|--|------------------------------------------------|
------|-x---|--|------------------------------------------------|
------|-7---|--|------------------------------------------------|
------|-----|--|------------------------------------------------|
------|-----|--|------------------------------------------------|

 Outro G1 Chord Strum

------|---------------------------------------|--|
------|---------------------------------------|--|
------|-14-14---------------------------------|--|
------|---------------------------------------|--|
------|------17/19-17/19--15-15-15-14-14------|--|
------|-----------------------------------13--|--|

 Outro G2
comments
We did not receive enough feedback on this tab! Please rate:
1 2 3 4 5
I want to post or [tab]
guest
You may want to rate the tab now too:
select rating
Please do not post tabs as comments. Select "correction" instead!