Oops, an error
Loading. Please wait.

French Song Tab

by Blur
411 views 1 this week
no commentswrite comment
1 2 3 4 5
poor
x 1
Autoscroll
+/-
esc
set tempo
stop
Contributor
Hey! There's an official Ultimate Guitar app which is ideal
for learning songs when you're away from computer. Get the app
WARNING: You are trying to view
                                    content from Ultimate-Guitar.com
                                    in an unauthorized application,
                                    which is prohibited.

                                    Please use an official Ultimate
                                    Guitar Tabs application for iPhone,
                                    iPad or Android to access legitimate
                                    chords, guitar, bass, and drum tabs
                                    from Ultimate-Guitar.com database.

                                    Type "ultimate guitar tabs" in Apple
                                    App Store's or Android Market's
                                    search to find the application.
Song: French Song
Artist: Blur
Album: Tender [CD1]
Year: 1999

E ------------------------|
B ----------------h-p-----|
G ---------------1-2-1----| 2x
D --0-2-2-0-2--2-------2--|
A ------------------------|
E ------------------------|

E ------------------------|
B ----------------h-p-----|
G ---------------3-5-3----| 2x
D --3-5-5-3-5--5-------5--|
A ------------------------|
E ------------------------|


E -------------------------|
B --9-9--14-14-16-16-------|
G --9-9--14-14-16-16--11\--|
D --9-9--14-14-16-16-------|
A --7-7--12-12/14-14-------|
E -------------------------|

E --------------------------|
B --9-9--14-14-16-16----p---|
G --9-9--14-14-16-16--11-9--|
D --9-9--14-14-16-16--------|
A --7-7--12-12/14-14--------|
E --------------------------|

E -----------------------------------|
B --9-9--14-14--16-16----p--h--p-----|
G --9-9--14-14--16-16--12-10-12-10\--|
D --9-9--14-14--16-16----------------|
A --7-7--12-12--14-14----------------|
E -----------------------------------|

E -------------------------|
B --9-9--14-14-16-16-------|
G --9-9--14-14-16-16--11\--|
D --9-9--14-14-16-16-------|
A --7-7--12-12/14-14-------|
E -------------------------|


       p         p       p             p
E --2-2-0--p--2-2-0--p--2-0--p--5^--2-2-0--p------|
B --------2-0-------2-0-----2-0-----------2-0-5^--|
G ------------------------------------------------|
D ------------------------------------------------|
A ------------------------------------------------|
E ------------------------------------------------|

       p         p                p
E --2-2-0--p--2-2-0--p--2--5^--2-2-0--p------------|
B --------2-0-------2-0--------------2-0-5^--------|
G ------------------------------------------6-4-4--|
D -------------------------------------------------|
A -------------------------------------------------|
E -------------------------------------------------|

       p         p                 p   p
E --2-2-0--p--2-2-0--p--0-2-5^--2-2-0-2-0-----------|
B --------2-0-------2-0-------------------5^--------|
G -------------------------------------------6-4-4--|
D --------------------------------------------------|
A --------------------------------------------------|
E --------------------------------------------------|

E -----------------|
B -----------------|
G -----------------|
D --4-6-8-9-11-13--|
A -----------------|
E -----------------|


E ---------------------------|
B --9-9--14-14-16-16----p----|
G --9-9--14-14-16-16--11-9\--|
D --9-9--14-14-16-16---------|
A --7-7--12-12-14-14---------|
E ---------------------------|

E ---------------------------|
B --9-9--14-14-16-16----p----|
G --9-9--14-14-16-16--11-8\--|
D --9-9--14-14-16-16---------|
A --7-7--12-12/14-14---------|
E ---------------------------|

E ----------------------------|
B --9-9--14-14--16-16----p----|
G --9-9--14-14--16-16--11-9\--|
D --9-9--14-14--16-16---------|
A --7-7--12-12--14-14---------|
E ----------------------------|

E ---------------------------|
B --9-9--14-14-16-16---------|
G --9-9--14-14-16-16--11-8\--|
D --9-9--14-14-16-16---------|
A --7-7--12-12/14-14---------|
E ---------------------------|


       p       p       p             p
E --2-2-0---2-2-0--p--2-0--p--5^--2-2-0--p------|
B --------2-------2-0-----2-0-----------2-0-5^--|
G ----------------------------------------------|
D ----------------------------------------------|
A ----------------------------------------------|
E ----------------------------------------------|

       p         p       p             p
E --2-2-0-----2-2-0--p--2-0--p--5^--2-2-0-2-----------|
B --------0-2-------2-0-----2-0-----------2-5^--------|
G ---------------------------------------------6-4-4--|
D ----------------------------------------------------|
A ----------------------------------------------------|
E ----------------------------------------------------|

       p         p       p             p
E --2-2-0-----2-2-0--p--2-0--p--5^--2-2-0-------------|
B --------0-2-------2-0-----2-0-----------x-5^--------|
G ---------------------------------------------6-4-4--|
D ----------------------------------------------------|
A ----------------------------------------------------|
E ----------------------------------------------------|

E -----------------|
B -----------------|
G -----------------|
D --4-6-8-9-11-13--|
A -----------------|
E -----------------|


E --------------------------|
B --9-9--14-14-16-16---p----|
G --9-9--14-14-16-16--9-7\--|
D --9-9--14-14-16-16--------|
A --7-7--12-12/14-14--------|
E --------------------------|

E --------------------------|
B --9-9--14-14-16-16---p----|
G --9-9--14-14-16-16--9-7\--|
D --9-9--14-14-16-16--------|
A --7-7--12-12/14-14--------|
E --------------------------|

E ---------------------------------------|
B --9-9--14-14-16-16----p-h--p-h--p------|
G --9-9--14-14-16-16--11-9-11-9-11-9\8\--|
D --9-9--14-14-16-16---------------------|
A --7-7--12-12/14-14---------------------|
E ---------------------------------------|

E ----------------------------|
B -12-9--14-14-16-------------|
G --9-9--14-14-16-16-x-x-17\--|
D --9-9--14-14-16-16----------|
A --7-7--12-12/14-14----------|
E ----------------------------|


       p       p       p             p
E --2-2-0---2-2-0--p--2-0--p--5^--2-2-0--p------|
B --------2-------2-0-----2-0-----------2-0-5^--|
G ----------------------------------------------|
D ----------------------------------------------|
A ----------------------------------------------|
E ----------------------------------------------|

       p         p       p             p
E --2-2-0-----2-2-0--p--2-0--p--5^--2-2-0-2---------|
B --------0-2-------2-0-----2-0-----------2-5^------|
G ---------------------------------------------6-4--|
D --------------------------------------------------|
A --------------------------------------------------|
E --------------------------------------------------|

       p         p                 p
E --2-2-0-----2-2-0-----0-2-5^--2-2-0-------------|
B --------0-2-------0-2---------------x-5^--------|
G -----------------------------------------6-4-4--|
D ------------------------------------------------|
A ------------------------------------------------|
E ------------------------------------------------|

E -----------------|
B -----------------|
G -----------------|
D --4-6-8-9-11-13--|
A -----------------|
E -----------------|



(keyboard break)


E -----     -------------------|
B -----     -------------------|
G --6--     -------------------|
D ----- 24x -4--4-6-8-9-11-13--|
A -----     -------------------|
E -----     -------------------|


E ------------------------|
B ----------------h-p-----|
G ---------------1-2-1----| 4x
D --0-2-2-0-2--2-------2--|
A ------------------------|
E ------------------------|

E ------------------------|
B ----------------h-p-----|
G ---------------3-5-3----| 4x
D --3-5-5-3-5--5-------5--|
A ------------------------|
E ------------------------|


E -------------------------------|
B --9-9--14-14-----16-16---------|
G --9-9--14-14-----16-16--12-14--|
D --9-9--14-14-----16-16--15-17--|
A --7-7--12-12-x-x-14-14---------|
E -------------------------------|

E -------------------------------|
B --9-9--14-14-----16-16----h----|
G --9-9--14-14-----16-16--12-13--|
D --9-9--14-14-----16-16---------|
A --7-7--12-12-x-x-14-14---------|
E -------------------------------|

E -------------------------|
B --9-9--14-14-16-16-------|
G --9-9--14-14-16-16--17\--|
D --9-9--14-14-16-16-------|
A --7-7--12-12/14-14-------|
E -------------------------|

E ----------------------------|
B -9-12--14-14-16-16----------|
G -9--9--14-14-16-16-x-x-16\--|
D -9--9--14-14-16-16----------|
A -7--7--12-12/14-14----------|
E ----------------------------|


       p       p       p             p
E --2-2-0---2-2-0--p--2-0--p--5^--2-2-0--p------|
B --------2-------2-0-----2-0-----------2-0-5^--|
G ----------------------------------------------|
D ----------------------------------------------|
A ----------------------------------------------|
E ----------------------------------------------|

       p         p                 p
E --2-2-0--p--2-2-0--p--0-2-5^--2-2-0-2-----------|
B --------2-0-------2-0-----------------2-5^------|
G -------------------------------------------6-4--|
D ------------------------------------------------|
A ------------------------------------------------|
E ------------------------------------------------|

       p          p                 p
E --2-2-0--p---2-2-0--p--0-2-5^--2-2-0-------------|
B --------2-0--------2-0---------------x-5^--------|
G ------------------------------------------6-4-4--|
D -------------------------------------------------|
A -------------------------------------------------|
E -------------------------------------------------|

E -----------------|
B -----------------|
G -----------------|
D --4-6-8-9-11-13--|
A -----------------|
E -----------------|


E --------------------------------|
B --9-9--14-14-16-16--------------|
G --9-9--14-14-16-16--/8-8-11-14--|
D --9-9--14-14-16-16--------------|
A --7-7--12-12/14-14--------------|
E --------------------------------|

E ----------------------------|
B --9-9--14-14-16-16----------|
G --9-9--14-14-16-16--/11/13--|
D --9-9--14-14-16-16----------|
A --7-7--12-12/14-14----------|
E ----------------------------|

E -------------------------|
B --9-9--14-14-16-16-------|
G --9-9--14-14-16-16--10\--|
D --9-9--14-14-16-16-------|
A --7-7--12-12/14-14-------|
E -------------------------|

E ----------------------------|
B ----9--14-14-16-16----------|
G --9-9--14-14-16-16--/11/13--|
D --9-9--14-14-16-16----------|
A --7-7--12-12/14-14----------|
E ----------------------------|


       p       p       p             p
E --2-2-0---2-2-0--p--2-0--p--5^--2-2-0--p------|
B --------2-------2-0-----2-0-----------2-0-5^--|
G ----------------------------------------------|
D ----------------------------------------------|
A ----------------------------------------------|
E ----------------------------------------------|

       p         p       p         p
E --2-2-0--p--2-2-0--p--2-0-5^--2-2-0-----------|
B --------2-0-------2-0---------------x-5^------|
G -----------------------------------------6-4--|
D ----------------------------------------------|
A ----------------------------------------------|
E ----------------------------------------------|

       p         p                 p
E --2-2-0--p--2-2-0--p--0-2-5^--2-2-0-------------|
B --------2-0-------2-0---------------x-5^--------|
G -----------------------------------------6-4-4--|
D ------------------------------------------------|
A ------------------------------------------------|
E ------------------------------------------------|

E -----------------|
B -----------------|
G -----------------|
D --4-6-8-9-11-13--|
A -----------------|
E -----------------|


E --------------------------------------|
B --9-9--14-14-----16-------------------|
G --9-9--14-14-----16-------------------|
D --9-9--14-14-----16-------------------|
A --7-7--12-12-x-x-14--x-x-x-x-x-x-x-x--|
E --------------------------------------|

E --------------------------------------------------------------|
B ----------------h-p-----------------------------------h-p-----|
G ---------------1-2-1--------1------------------------1-2-1----|
D --0-2-2-0-2--2-------2--0-2-2-0-2--2-2--0-2-2-0-2--2-------2--|
A --------------------------------------------------------------|
E --------------------------------------------------------------|

E -----------------------------------------------------|
B -------------------------------h-p-------------------|
G ------0-2-4^-4^---------------1-2-1-------0-2-4^-4^--|
D --0-2-----------0-x-2-x-0-x-2-------2-0-2------------|
A -----------------------------------------------------|
E -----------------------------------------------------|

E --------------------------------------|
B ----------------h-p-------------------|
G ---------------1-2-1-------0-2-4^-4^--| 2x
D --0-2-2-0-2--2-------2-0-2------------|
A --------------------------------------|
E --------------------------------------|

E ------------------------------------|
B ----------------h-p-----------------|
G ---------------3-5-3---------4/5/7--|
D --3-5-5-3-5--5-------5-3-5-5--------|
A ------------------------------------|
E ------------------------------------|

E ------------------------------------------|
B ----------------h-p-----------------------|
G ---------------1-2-1----------------------|
D --0-2-2-0-2--2-------2-0-2-2-0-2-x-x-x-x--|
A ------------------------------------------|
E ------------------------------------------|

(noise and feedback)

       p         p       p             p
E --2-2-0--p--2-2-0--p--2-0--p--5^--2-2-0--p------|
B --------2-0-------2-0-----2-0-----------2-0-5^--|
G ------------------------------------------------|
D ------------------------------------------------|
A ------------------------------------------------|
E ------------------------------------------------|

       p         p       p         p
E --2-2-0-----2-2-0--p--2-0-5^--2-2-0--p----------|
B --------0-2-------2-0---------------2-0-5^------|
G -------------------------------------------6-4--|
D ------------------------------------------------|
A ------------------------------------------------|
E ------------------------------------------------|

       p         p       p         p
E --2-2-0-----2-2-0--p--2-0-5^--2-2-0-------------|
B --------0-2-------2-0---------------x-5^--------|
G -----------------------------------------6-4-4--|
D ------------------------------------------------|
A ------------------------------------------------|
E ------------------------------------------------|

E -----------------|
B -----------------|
G -----------------|
D --4-6-8-9-11-13--|
A -----------------|
E -----------------|


E ---------------------------------|
B --9-9--14-14-16-16---------------|
G --9-9--14-14-16-16--11-12-11-12--|
D --9-9--14-14-16-16---------------|
A --7-7--12-12/14-14---------------|
E ---------------------------------|

E ------------------------|
B --9-9--14-14-16-16------|
G --9-9--14-14-16-16------|
D --9-9--14-14-16-16------|
A --7-7--12-12/14-14--9\--|
E ------------------------|

E -------------------------|
B --9-9--14-14-16-16-------|
G --9-9--14-14-16-16--10\--|
D --9-9--14-14-16-16-------|
A --7-7--12-12/14-14-------|
E -------------------------|

E ------------------------|
B --9-9--14-14-16-16------|
G --9-9--14-14-16-16--9\--|
D --9-9--14-14-16-16------|
A --7-7--12-12/14-14------|
E ------------------------|



       p         p       p             p
E --2-2-0--p--2-2-0--p--2-0--p--5^--2-2-0--p------|
B --------2-0-------2-0-----2-0-----------2-0-5^--|
G ------------------------------------------------|
D ------------------------------------------------|
A ------------------------------------------------|
E ------------------------------------------------|

       p         p       p         p
E --2-2-0--p--2-2-0--p--2-0-5^--2-2-0--p----------|
B --------2-0-------2-0---------------2-0-5^------|
G -------------------------------------------6-4--|
D ------------------------------------------------|
A ------------------------------------------------|
E ------------------------------------------------|

         p         p       p         p
E --<2>-2-0--p--2-2-0--p--2-0-5^--2-2-0--p------------|
B ----------2-0-------2-0---------------2-0-5^--------|
G ---------------------------------------------6-4-4--|
D ----------------------------------------------------|
A ----------------------------------------------------|
E ----------------------------------------------------|

E -----------------|
B -----------------|
G -----------------|
D --4-6-8-9-11-13--|
A -----------------|
E -----------------|


E --------------------------------|
B --9-9--14---14---16-16----------|
G --9-9--14---14---16-16----------|
D --9-9--14---14---16-16-----10^--|
A --7-7--12-x-12-x-14-14-x-x------|
E --------------------------------|

E ------------------------|
B --9-9--14-14-16-16------|
G --9-9--14-14-16-16------|
D --9-9--14-14-16-16--10--|
A --7-7--12-12-14-14------|
E ------------------------|

(keyboard bit)
                         p
E ------------------0-2-2-0--p-----------------|
B -------------/12----------2-0-5^-------x-----|
G --9-10-11-12-----------------------x-6---4^--|
D ---------------------------------4-----------|
A ---------------------------------------------|
E ---------------------------------------------|

E ---------------------------------|
B ------5^-5^-4------h--5-5-5-5-4--|
G --4-7---------7-4-4-7------------|
D ---------------------------------|
A ---------------------------------|
E ---------------------------------|

E ---------------------------|
B --4^-2---4^-2---4^-2---4^--|
G -------4------4------4-----|
D ---------------------------|
A ---------------------------|
E ---------------------------|

E -----------------------------------------|
B -----------------------------------------|
G ------3---------------------------13-----|
D --4-x---4/6-6-8-8-9-9-11-11-11-13----13--|
A -----------------------------------------|
E -----------------------------------------|



E ---------------------------------------------|
B --9-9--14---14---16---16----p-h--p-h--p------|
G --9-9--14---14---16---16--11-9-11-9-11-9/8/--|
D --9-9--14---14---16---16---------------------|
A --7-7--12-x-12-x/14-x-14-x-------------------|
E ---------------------------------------------|

E ---------------------------------------|
B --9-9--14-14-16-16----p-h--p-h--p------|
G --9-9--14-14-16-16--11-9-11-9-11-9/8/--|
D --9-9--14-14-16-16---------------------|
A --7-7--12-12/14-14---------------------|
E ---------------------------------------|

E ------------------------------------------|
B ----9--14-14----16-16----p-h--p-h--p------|
G ----9--14-14----16-16--11-9-11-9-11-9/8/--|
D ----9--14-14----16-16---------------------|
A --7-7--12-12-xx-14-14---------------------|
E ------------------------------------------|

E --------------------------------------------|
B --9-9--14-14-17-16-16----p-h--p-h--p-h--p---|
G --9-9--14-14-17-16-16--11-9-11-9-11-9-11-9--|
D --9-9--14-14-17-16-16-----------------------|
A --7-7--12-12/15-14-14-----------------------|
E --------------------------------------------|


       p         p       p             p
E --2-2-0--p--2-2-0--p--2-0--p--5^--2-2-0--p------|
B --------2-0-------2-0-----2-0-----------2-0-5^--|
G ------------------------------------------------|
D ------------------------------------------------|
A ------------------------------------------------|
E ------------------------------------------------|

       p         p       p         p
E --2-2-0--p--2-2-0--p--2-0-5^--2-2-0--p----------|
B --------2-0-------2-0---------------2-0-5^------|
G -------------------------------------------6-4--|
D ------------------------------------------------|
A ------------------------------------------------|
E ------------------------------------------------|

       p         p       p         p
E --2-2-0--p--2-2-0--p--2-0-5^--2-2-0--p----------|
B --------2-0-------2-0---------------2-0-5^------|
G -------------------------------------------6-4--|
D ------------------------------------------------|
A ------------------------------------------------|
E ------------------------------------------------|

E -----------------|
B -----------------|
G -----------------|
D --4-6-8-9-11-13--|
A -----------------|
E -----------------|


E -------------------------|
B --9-9--14-14-16-16-------|
G --9-9--14-14-16-16--16---|
D --9-9--14-14-16-16--16^--|
A --7-7--12-12-14-14-------|
E -------------------------|

E ---------------------------|
B --9-9--14-14----16-16------|
G --9-9--14-14----16-16------|
D --9-9--14-14----16-16-16^--|
A --7-7--12-12-xx-14-14------|
E ---------------------------|

E ----------------------------|
B --9-9--14-14----16-16-------|
G --9-9--14-14----16-16-------|
D --9-9--14-14----16-16-------|
A --7-7--12-12-xx-14-14--14^--|
E ----------------------------|

E -------------------------|
B --9-9--14-14-16-16-------|
G --9-9--14-14-16-16--19\--|
D --9-9--14-14-16-16--16\--|
A --7-7--12-12/14-14-------|
E -------------------------|


       p         p       p             p
E --2-2-0--p--2-2-0--p--2-0--p--5^--2-2-0--p------|
B --------2-0-------2-0-----2-0-----------2-0-5^--|
G ------------------------------------------------|
D ------------------------------------------------|
A ------------------------------------------------|
E ------------------------------------------------|

       p         p             p
E --2-2-0--p--2-2-0-----5^--2-2-0-----------|
B --------2-0-------2-0-----------2-5^------|
G -------------------------------------6-4--|
D ------------------------------------------|
A ------------------------------------------|
E ------------------------------------------|

       p         p       p         p
E --2-2-0--p--2-2-0--p--2-0-5^--2-2-0---2----|
B --------2-0-------2-0---------------2---0--|
G -------------------------------------------|
D -------------------------------------------|
A -------------------------------------------|
E -------------------------------------------|


E --------------------|
B -----------------x--|
G --5-6-8-9-11-x-x----|
D --5-----------------|
A --------------------|
E --------------------|


E ------------------------------------|
B --9-9--14-14-16-16------------------|
G --9-9--14-14-16-16--15-15-15-15-15--|
D --9-9--14-14-16-16--15-15-15-15-15--|
A --7-7--12-12-14-14------------------|
E ------------------------------------|

E -----------------------|
B ----9--14-14----16-16--|
G --9-9--14-14----16-16--|
D ----9--14-14----16-16--|
A ----7--12-12-xx-14-14--|
E -----------------------|

E --------------------|
B --9-9--14-14-16-16--|
G --9-9--14-14-16-16--|
D --9-9--14-14-16-16--|
A --7-7--12-12-14-14--|
E --------------------|

E --------------------|
B --9-9--14-14-16-16--|
G --9-9--14-14-16-16--|
D --9-9--14-14-16-16--|
A --7-7--12-12-14-14--|
E --------------------|


       p                     p
E --2-2-0--p--2-2--p--5^--2-2-0-------|
B --------2-0-----2-0-----------0-5^--|
G ------------------------------------|
D ------------------------------------|
A ------------------------------------|
E ------------------------------------|

       p   p   p       p
E --x-2-0-2-0-2-0-5^--2-0-------|
B ------------------------x-5^--|
G ------------------------------|
D ------------------------------|
A ------------------------------|
E ------------------------------|

       p     p
E --x-2-0---2-0-x-x-3-4-5^-3-3-x----|
B --------2-------2-0---------------|
G -------------------------------4--|
D ----------------------------------|
A ----------------------------------|
E ----------------------------------|

E --------------------|
B --------------------|
G --------------------|
D --44-66-8-10-12-13--|
A --------------------|
E --------------------|


E --12\11/12\11/12\11/12-12-11/12\11/12\11/12\11/12-12/13/--|
B --12\11/12\11/12\11/12-12-11/12\11/12\11/12\11/12-12/13/--|
G --13\12/13\12/13\12/13-13-12/13\12/13\12/13\12/13-13/12/--|
D ----------------------------------------------------------|
A ----------------------------------------------------------|
E ----------------------------------------------------------|

E --12121212121212121212121212121212121212121212121212--|
B --12121212121212121212121212121212121212121212121212--|
G --13131313131313131313131313131313131313131313131313--|
D ------------------------------------------------------|
A ------------------------------------------------------|
E ------------------------------------------------------|

E --99999999999999999999999999999--|
B --99999999999999999999999999999--|
G --99999999999999999999999999999--|
D --66666666666666666666666666666--|
A ---------------------------------|
E ---------------------------------|
comments
We did not receive enough feedback on this tab! Please rate:
print report bad tab
1 2 3 4 5
I want to post or [tab]
guest
You may want to rate the tab now too:
select rating
Please do not post tabs as comments. Select "correction" instead!