Oops, an error
Loading. Please wait.

Song 2 Tab

by Blur
ver1
ver1
More versions @911Tabs.com
181,330 views 365 this week
5 commentsread comments
1 2 3 4 5
accurate
x 14
Autoscroll
+/-
esc
set tempo
stop
Contributor
WARNING: You are trying to view
                                    content from Ultimate-Guitar.com
                                    in an unauthorized application,
                                    which is prohibited.

                                    Please use an official Ultimate
                                    Guitar Tabs application for iPhone,
                                    iPad or Android to access legitimate
                                    chords, guitar, bass, and drum tabs
                                    from Ultimate-Guitar.com database.

                                    Type "ultimate guitar tabs" in Apple
                                    App Store's or Android Market's
                                    search to find the application.
#----------------------------------PLEASE NOTE--------------------------------#
#This file is the author's own work and represents their interpretation of the#
#song. You may only use this file for private study, scholarship, or research.#
#-----------------------------------------------------------------------------#
#-- File created with Instab - http://www.pconline.com/~smcarey/instab.html --#
#-----------------------------------------------------------------------------#

Author/Artist: Blur
Title: Song 2

x scratch string
/ slide up

* Play in relatively same position as tab.  

G1 Acoustic Tuning Drop C# (c# ab db gb bb eb), Down ~ 10%
G2 Tuning (eb A D G B E), Down ~ 10%
Live Standard Tuning, Down ~ 10%
Bedroom Tuning* (eb A D G B E)
Key: (C# + C)



-----|---------------------------------------------------|--|
-----|---------------------------------------------------|--|
-----|-11--11---------------------------11-18--18-18-18--|--|
-----|-11--11-----------------14-14-14--x--x---x--x--x---|--|
-----|----------7--7--7--7----12-12-12--14-16--16-16-16--|--|
-----|---------------------------------------------------|--|
   G1 Verse 



-|-------------------------------|--|---------|--|---------|--|---------|--|
-|-------------------------------|--|---------|--|---------|--|---------|--|
-|---------------------5--5-5-5--|--|---------|--|---------|--|---------|--|
-|-3-3-3--1-1-1--6-6-8-5--5-5-5--|3x|-3-3-3-3-|2x|-6-6-6-6-|2x|-6-6-6-6-|4x|
-|-3-3-3--1-1-1--6-6-8-3--3-3-3--|--|-3-3-3-3-|--|-6-6-6-6-|--|-4-4-4-4-|--|
-|-x-x-x--x-x-x--x-x-x-----------|--|-x-x-x-x-|--|-x-x-x-x-|--|-x-x-x-x-|--|
  G2 Chorus Bass Arranged for Guitar (Repeat main part with bass improv)




-----|-------------|--|
-----|-9--9--9--9--|--|
-----|-x--x--x--x--|--|
-----|-6--6--6--6--|--|
-----|-------------|--|
-----|-------------|--|
   G2 Chorus 



-----|-------------|--|--------|
-----|-13-13-13-13-|--|--------|
-----|-x--x--x--x--|--|--------|
-----|-10-10-10-10-|--|--------|
-----|-------------|--|-11/13--|
-----|-------------|--|--------|
   G2 Outro


comments
print report bad tab
5 comments total. Showing first comments.
0 reply
Saverain wrote on July 2 2002, 12:00 am, edited on March 19 2014, 03:25 pm

I believe it's played with 2 guitars.

0 reply
NiRvanAcobain wrote on January 1 2004, 12:00 am

this is the best song by blur i loved it and wanted to play it on the guitar when i first heard it.

0 reply
rosshawk11 wrote on November 14 2005, 01:01 pm

it's power cords

I want to post or [tab]
guest
You may want to rate the tab now too:
select rating
Please do not post tabs as comments. Select "correction" instead!