Oops, an error
Loading. Please wait.

Song 2 Bass Tab

by Blur
ver7
ver7
More versions @911Tabs.com
19,962 views 138 this week
no commentswrite comment
1 2 3 4 5
accurate
x 5
Autoscroll
+/-
esc
set tempo
stop
Difficulty
intermediate
WARNING: You are trying to view
                                    content from Ultimate-Guitar.com
                                    in an unauthorized application,
                                    which is prohibited.

                                    Please use an official Ultimate
                                    Guitar Tabs application for iPhone,
                                    iPad or Android to access legitimate
                                    chords, guitar, bass, and drum tabs
                                    from Ultimate-Guitar.com database.

                                    Type "ultimate guitar tabs" in Apple
                                    App Store's or Android Market's
                                    search to find the application.
Blur - Song 2
Bass Tab
Tabbed by Keilan
Email: keilan31@hotmail.co.uk

This is 100% correct to how it is played on the album (although on the album there is a 
bass playing the Main riff over Riffs 3 and 4)

Main riff (distorted)
G|----------------------------------------------------|
D|----------------------------------------------------|
A|-8-8-8-8-6-6-6-6------------------------------------|
E|-----------------4-4-6-8-8-8-8----------------------|

Riff 2 (distorted)
G|----------------------------------------|
D|--------------11-x12-------11-11--------|
A|-8-x8--11-x8---------11-11--------------|
E|----------------------------------------|

Riff 3 (clean)
G|---------------------------------------------------|
D|-----6/3-6/3---------------------------------------|
A|-8-8-----------------------------------------------|
E|-------------4-4-6-8-8-8-8-------------------------| X2

Riff 4 (clean)
G|---------------------------------------------------|
D|-----6/3-6/3---------------------------------------|
A|-8-8---------8-10----------------------------------|
E|------------------4-4-6-8-8-8-8--------------------| X2

Order:

(drums and guitar start)
Main riff x4
(no bass in verse)
Main Riff x3
Riff 2
Riff 3
(no bass in verse)
Main Riff x3
Riff 2
Riff 3
Riff 4
I want to post or [tab]
guest
You may want to rate the tab now too:
select rating
Please do not post tabs as comments. Select "correction" instead!