Oops, an error
Loading. Please wait.

Weve Got A File On You Tab

by Blur
1,354 views 6 this week
1 commentread comment
1 2 3 4 5
accurate
x 1
Autoscroll
+/-
esc
set tempo
stop
Contributor
Difficulty
novice
WARNING: You are trying to view
                                    content from Ultimate-Guitar.com
                                    in an unauthorized application,
                                    which is prohibited.

                                    Please use an official Ultimate
                                    Guitar Tabs application for iPhone,
                                    iPad or Android to access legitimate
                                    chords, guitar, bass, and drum tabs
                                    from Ultimate-Guitar.com database.

                                    Type "ultimate guitar tabs" in Apple
                                    App Store's or Android Market's
                                    search to find the application.
We've Got A File On You
Blur - Think Tank 2003

intro

e|--------------------------------|
B|--------------------------------|
G|x-xx-xx-x-xxxxx--x-xx-xx-x-xxxxx|
D|x-xx-xx-x-xxxxx--x-xx-xx-x-xxxxx|
A|x-xx-xx-x-xxxxx--4-44-44-4-44444|
E|2-22-22-2-22222--2-22-22-2-22222| listen for the proper strumming pattern, it's easy 
hear but too tricky to write down sorry lol

verse/pre chorus (when the muting sound disappears and sounds like proper chords)

e|---------------------------------|  |---------|
B|---------------------------------|  |---------|
G|---------------------------------|  |---------|
D|---------------------------------|  |---------|
A|--4-4--4--4-4--4-444-7-7-7--7----|  |-9-9-9---| on the last time before
E|--2-2--0--2-2--0-222-5-5-5--0----|  |-7-7-7---| chorus

chorus x4 (chanting "we've got a file on you")

e|--------------------------------|
B|--------------------------------|
G|--------------------------------|
D|--------------------------------|
A|--4-4--4-4-4--4-4-4-4-4-*-7-7-*-|
E|--2-2--0-2-2--0-2-2-2-0-*-5-5-*-| on the last time don't play the notes marked with asterixs


solo/fill x3

e|-------------------------------|
B|-------------------------------|
G|----2-3-3----------------------|
D|-4--------------4--------------|
A|----------------------3/4------|
E|-------------------------------|

that's pretty much it, sorry it's a bit messy but everything you need is there and is 
easy to figure out so enjoy =]
comments
We did not receive enough feedback on this tab! Please rate:
print report bad tab
1 2 3 4 5
1 comment total.
0 reply
matty_boy_2 wrote on May 23 2007, 12:38 pm

sorry, small correction:

solo/fill x3

e|-------------------------------|
B|-------------------------------|
G|----2-3-3----------------------|
D|-4--------------4--------------|
A|----------------------3/4------|
E|-------------------------------|

should be:

solo/fill x3

e|-------------------------------|
B|-------------------------------|
G|----2-3-4----------------------|
D|-4--------------4--------------|
A|----------------------3/4------|
E|-------------------------------|

I want to post or [tab]
guest
You may want to rate the tab now too:
select rating
Please do not post tabs as comments. Select "correction" instead!