Oops, an error
Loading. Please wait.

Both Of Us Tab

by Bob
ver1
ver1

Intro

Whole song

More versions @911Tabs.com
32,879 views 111 this week
no commentswrite comment
1 2 3 4 5
accurate
x 5
Autoscroll
+/-
esc
set tempo
stop
Contributor
Hey! There's an official Ultimate Guitar app which is ideal
for learning songs when you're away from computer. Get the app
WARNING: You are trying to view
                                    content from Ultimate-Guitar.com
                                    in an unauthorized application,
                                    which is prohibited.

                                    Please use an official Ultimate
                                    Guitar Tabs application for iPhone,
                                    iPad or Android to access legitimate
                                    chords, guitar, bass, and drum tabs
                                    from Ultimate-Guitar.com database.

                                    Type "ultimate guitar tabs" in Apple
                                    App Store's or Android Market's
                                    search to find the application.
Song  : Both of Us
Artist: B.o.B. ft. Taylor Swift
Notes : I'm pretty sure the intro is played on a Ukulele but I've recreated
        it on the guitar. It's probably not *exactly* the same but it sounds
        good.
        If you listen to the song you can work out the timing (I haven't
        included timing, it's a bit tricky).
        Strum the verses.

Tuning: Standard (EADGBe)
Capo  : 7th fret
Chords:
    C     G1    G     Em7   F
e---0-- --0-- --0-- --0-- --1-- ---|
B---1-- --1-- --0-- --1-- --1-- ---|
G---0-- --0-- --0-- --0-- --2-- ---|
D---2-- --0-- --0-- --2-- --3-- ---|
A---3-- --2-- --2-- --0-- --x-- ---|
E---x-- --3-- --3-- --x-- --x-- ---|

INTRO:

   C           F       Em7         G
e------------0-1-------0-----0------------------|
B--1-----1-------1---1---1-----1---0-----0------|
G----0-----0-------2-------0-----0---0-----0----|
D--------------3--------------------------------|
A--3---3-3-------------0-----0------------------|
E----------------------------------3---3-----3--|

CHORUS(Taylor Swift):

   C             C              G1                   G1
e------------------------------------------------------------|
B--------1-------------1--------------1-------------1--------|
G------0---0---0-----0---0---0------0---0---0-----0---0---0--|
D----2-------------2--------------0-------------0------------|
A--3---------3---3---------3---------------------------------|
E-------------------------------3---------3---3---------3----|
   I wish I was...             strong enough to...

   Em7           Em7           F             F
e------------------------------------1-------------1--------|
B--------1-------------1-----------1-------1-----1-------1--|
G------0---0---0-----0---0---0---2-----2-------2-----2------|
D----2-------------2-----------3---------3---3---------3----|
A--0---------0---0---------0--------------------------------|
E-----------------------------------------------------------|
   lift not one but...     both of us...

   C             C              G1                   G1
e------------------------------------------------------------|
B--------1-------------1--------------1-------------1--------|
G------0---0---0-----0---0---0------0---0---0-----0---0---0--|
D----2-------------2--------------0-------------0------------|
A--3---------3---3---------3---------------------------------|
E-------------------------------3---------3---3---------3----|
   Someday I will be...         strong enough to...

   Em7           Em7           F             F
e------------------------------------1-------------1--------|
B--------1-------------1-----------1-------1-----1-------1--|
G------0---0---0-----0---0---0---2-----2-------2-----2------|
D----2-------------2-----------3---------3---3---------3----|
A--0---------0---0---------0--------------------------------|
E-----------------------------------------------------------|
   lift not one but...     both of us...

VERSE 1(B.o.B):
C
Ever thought about losing it?
When your money is all gone and you lose your whip
          Em7
You might lose your grip
When the landlord tell you that you're due for rent
                       C
And the grass so green on the other side
Make a nigga wanna run straight through the fence
                         Em7
Open up the fridge about 20 times
But still can't find no food in it
That's foolishness
C
And sometimes I wonder
All we care so much about the way we look
               Em7
And the way we talk, and the way we act
And the clothes we bought, how much that cost?
C
Does it even really matter?
Cuz if life is an uphill battle,
              Em7
We all try to climb on the same old ladder
In the same boat with the same old paddle
       C
Why so shallow, I'm just asking
What's the pattern to the madness?
     Em7
Everybody in a #1 draft pick
Most of us aint Hollywood actors
       C
But if it's all for one, and one for all
Then maybe one day we all can ball
Em7
Do it one time for the underdogs
Sincerely yours, from one of y'all

CHORUS(Taylor Swift):

   C             C              G1                   G1
e------------------------------------------------------------|
B--------1-------------1--------------1-------------1--------|
G------0---0---0-----0---0---0------0---0---0-----0---0---0--|
D----2-------------2--------------0-------------0------------|
A--3---------3---3---------3---------------------------------|
E-------------------------------3---------3---3---------3----|
   I wish I was...             strong enough to...

   Em7           Em7           F             F
e------------------------------------1-------------1--------|
B--------1-------------1-----------1-------1-----1-------1--|
G------0---0---0-----0---0---0---2-----2-------2-----2------|
D----2-------------2-----------3---------3---3---------3----|
A--0---------0---0---------0--------------------------------|
E-----------------------------------------------------------|
   lift not one but...     both of us...

   C             C              G1                   G1
e------------------------------------------------------------|
B--------1-------------1--------------1-------------1--------|
G------0---0---0-----0---0---0------0---0---0-----0---0---0--|
D----2-------------2--------------0-------------0------------|
A--3---------3---3---------3---------------------------------|
E-------------------------------3---------3---3---------3----|
   Someday I will be...         strong enough to...

   Em7           Em7           F             F
e------------------------------------1-------------1--------|
B--------1-------------1-----------1-------1-----1-------1--|
G------0---0---0-----0---0---0---2-----2-------2-----2------|
D----2-------------2-----------3---------3---3---------3----|
A--0---------0---0---------0--------------------------------|
E-----------------------------------------------------------|
   lift not one but...     both of us...

VERSE 2(B.o.B):
C
I can feel your pain,
I can feel your struggle
                 Em7
You just want to live
But everything so low,
That you can drown in the puddle
                   C
That's why I gotta hold us up
Yeah hold us up
For all the times no one ever spoke for us
   Em7
So every single time that they play this song
You can say that, "that's what Bobby Ray wrote for us"
         C
When his eyes get too high
And the sea up underneath get so deep
                         Em7
And you feel like you're just another person
Getting lost in the crowd
Way up high in the nosebleeds (Uh)
              C
Because we've both been there
Yeah both of us
But we still stand tall
With our shoulders up
    Em7
And even though we always against the odds
These are the things that have molded us

BRIDGE(B.o.B):
       C
And if life hadn't chosen us
Sometimes I wonder
Where I would have wound up
                    G1
Cuz if it was up to me
I would make a new blueprint
Then build it from the ground up
            Em7
Hey, but if its all for one
And One for all
Then maybe one day
We all could ball
F
Do it one time for the underdogs
From Bobby Ray to all of y'all

CHORUS(Taylor Swift):

   C             C              G1                   G1
e------------------------------------------------------------|
B--------1-------------1--------------1-------------1--------|
G------0---0---0-----0---0---0------0---0---0-----0---0---0--|
D----2-------------2--------------0-------------0------------|
A--3---------3---3---------3---------------------------------|
E-------------------------------3---------3---3---------3----|
   I wish I was...             strong enough to...

   Em7           Em7           F             F
e------------------------------------1-------------1--------|
B--------1-------------1-----------1-------1-----1-------1--|
G------0---0---0-----0---0---0---2-----2-------2-----2------|
D----2-------------2-----------3---------3---3---------3----|
A--0---------0---0---------0--------------------------------|
E-----------------------------------------------------------|
   lift not one but...     both of us...

   C             C              G1                   G1
e------------------------------------------------------------|
B--------1-------------1--------------1-------------1--------|
G------0---0---0-----0---0---0------0---0---0-----0---0---0--|
D----2-------------2--------------0-------------0------------|
A--3---------3---3---------3---------------------------------|
E-------------------------------3---------3---3---------3----|
   Someday I will be...         strong enough to...

   Em7           Em7           F             F
e------------------------------------1-------------1--------|
B--------1-------------1-----------1-------1-----1-------1--|
G------0---0---0-----0---0---0---2-----2-------2-----2------|
D----2-------------2-----------3---------3---3---------3----|
A--0---------0---0---------0--------------------------------|
E-----------------------------------------------------------|
   lift not one but...     both of us...

OUTRO:

   C             C              G1                   G1
e------------------------------------------------------------|
B--------1-------------1--------------1-------------1--------|
G------0---0---0-----0---0---0------0---0---0-----0---0---0--|
D----2-------------2--------------0-------------0------------|
A--3---------3---3---------3---------------------------------|
E-------------------------------3---------3---3---------3----|
   OooOOooo....

   Em7           Em7           F             F
e------------------------------------1-------------1--------|
B--------1-------------1-----------1-------1-----1-------1--|
G------0---0---0-----0---0---0---2-----2-------2-----2------|
D----2-------------2-----------3---------3---3---------3----|
A--0---------0---0---------0--------------------------------|
E-----------------------------------------------------------|
   OooOOooo....

 .END.
comments
print report bad tab
I want to post or [tab]
guest
You may want to rate the tab now too:
select rating
Please do not post tabs as comments. Select "correction" instead!