Oops, an error
Loading. Please wait.

Ballad Of A Thin Man Tab

ver1
ver1

Whole song

Interactive

More versions @911Tabs.com
10,104 views 9 this week
no commentswrite comment
1 2 3 4 5
worth learning
x 3
Autoscroll
+/-
esc
set tempo
stop
Hey! There's an official Ultimate Guitar app which is ideal
for learning songs when you're away from computer. Get the app
WARNING: You are trying to view
                                    content from Ultimate-Guitar.com
                                    in an unauthorized application,
                                    which is prohibited.

                                    Please use an official Ultimate
                                    Guitar Tabs application for iPhone,
                                    iPad or Android to access legitimate
                                    chords, guitar, bass, and drum tabs
                                    from Ultimate-Guitar.com database.

                                    Type "ultimate guitar tabs" in Apple
                                    App Store's or Android Market's
                                    search to find the application.
Guitar 1



     H.              E  E  Q.     Q    E  E  E  Q     
E||---------------|---------------2----2--3-----2----|
B||---------------|--------3------3----3--5-----3----|
G||---------------|--------4------4----4--4-----4----|
D||---------------|--4--2--4------4----4--5-----4----|
A||---------------|--4--0--2------2----2--3-----2----|
E||---------------|--2-------------------------------|


  E  E  Q.     Q    E  E  E  Q       E  E  Q.     Q    E  E  E  Q     
---------------2----2--3-----2----|---------------2----2--3-----2----|
--------3------3----3--5-----3----|--------3------3----3--5-----3----|
--------4------4----4--4-----4----|--------4------4----4--4-----4----|
--4--2--4------4----4--5-----4----|--4--2--4------4----4--5-----4----|
--4--0--2------2----2--3-----2----|--4--0--2------2----2--3-----2----|
--2-------------------------------|--2-------------------------------|


  E  E  Q.     Q    E  E  E  Q       E  E  Q.     Q    E  E  E  Q     
---------------2----2--3-----2----|---------------2----2--3-----2----|
--------3------3----3--5-----3----|--------3------3----3--5-----3----|
--------4------4----4--4-----4----|--------4------4----4--4-----4----|
--4--2--4------4----4--5-----4----|--4--2--4------4----4--5-----4----|
--4--0--2------2----2--3-----2----|--4--0--2------2----2--3-----2----|
--2-------------------------------|--2-------------------------------|


  E  E  Q.     Q    E  E  E  Q       E  E  Q.     Q    E  E  E  Q     
---------------2----2--3-----2----|---------------2----2--3-----2----|
--------3------3----3--5-----3----|--------3------3----3--5-----3----|
--------4------4----4--4-----4----|--------4------4----4--4-----4----|
--4--2--4------4----4--5-----4----|--4--2--4------4----4--5-----4----|
--4--0--2------2----2--3-----2----|--4--0--2------2----2--3-----2----|
--2-------------------------------|--2-------------------------------|


  E  E  Q.     Q    E  E  E  Q       E  E  Q.     Q    E  E  E  Q     
---------------2----2--3-----2----|---------------2----2--3-----2----|
--------3------3----3--5-----3----|--------3------3----3--5-----3----|
--------4------4----4--4-----4----|--------4------4----4--4-----4----|
--4--2--4------4----4--5-----4----|--4--2--4------4----4--5-----4----|
--4--0--2------2----2--3-----2----|--4--0--2------2----2--3-----2----|
--2-------------------------------|--2-------------------------------|


  E  E  Q.     Q    E  E  E  Q       E  E  Q.     Q    E  E  E  Q     
---------------2----2--3-----2----|---------------2----2--3-----2----|
--------3------3----3--5-----3----|--------3------3----3--5-----3----|
--------4------4----4--4-----4----|--------4------4----4--4-----4----|
--4--2--4------4----4--5-----4----|--4--2--4------4----4--5-----4----|
--4--0--2------2----2--3-----2----|--4--0--2------2----2--3-----2----|
--2-------------------------------|--2-------------------------------|


    E  E  Q.     Q    E  E  E  Q     3x  E  E     W                E  E   
|----------------2----2--3-----2-----||--------|--2----------------2-----|
|---------3------3----3--5-----3-----||--------|--3----------------3-----|
|*--------4------4----4--4-----4----*||--------|--4----------------4-----|
|*--4--2--4------4----4--5-----4----*||--4--2--|--4----------------4-----|
|---4--0--2------2----2--3-----2-----||--4--0--|--2----------------2-----|
|---2--------------------------------||--2-----|-------------------------|


  W                E  E     W                E  E     W                E  E   
--1----------------1-----|--0----------------0-----|-------------------------|
--3----------------3-----|--1----------------1-----|--4----------------4-----|
--3----------------3-----|--2----------------2-----|--4----------------4-----|
--3----------------3-----|--2----------------2-----|--6----------------6-----|
--1----------------1-----|--0----------------0-----|--6----------------6-----|
-------------------------|-------------------------|--4----------------4-----|


  W                E  E     W                E  E     H        H        Q     
-------------------------|-------------------------|--------------------2----|
--3----------------3-----|--2----------------2-----|--3--------5--------3----|
--3----------------3-----|--2----------------2-----|--3--------5--------4----|
--5----------------5-----|--4----------------4-----|--5--------7--------4----|
--5----------------5-----|--4----------------4-----|--5--------7--------2----|
--3----------------3-----|--2----------------2-----|--3--------5-------------|


  E  Q    E  Q    S S E  Q       H.           H         
--3--3----3--3----3-3-3--3----|------------------------|
--5--5----5--5----5-5-5--5----|--3------------5--------|
--4--4----4--4----4-4-4--4----|--3------------5--------|
--5--5----5--5----5-5-5--5----|--5------------7--------|
--2--2----2--2----2-2-2--2----|--5------------7--------|
------------------------------|--3------------5--------|


  Q    W                   H             E  E  Q.     Q    E  E  E  Q       
-------2----------------|-----------||----------------2----2--3-----2-----||
--L----3----------------|-----------||---------3------3----3--5-----3-----||
--L----4----------------|-----------||*--------4------4----4--4-----4----*||
--L----4----------------|--4--------||*--4--2--4------4----4--5-----4----*||
--L----2----------------|--4--------||---4--0--2------2----2--3-----2-----||
--L---------------------|--2--------||---2--------------------------------||


  E  E     W                E  E     W                E  E   
--------|--2----------------2-----|--1----------------1-----|
--------|--3----------------3-----|--3----------------3-----|
--------|--4----------------4-----|--3----------------3-----|
--4--2--|--4----------------4-----|--3----------------3-----|
--4--0--|--2----------------2-----|--1----------------1-----|
--2-----|-------------------------|-------------------------|


  W                E  E     W                E  E     W                E  E   
--0----------------0-----|-------------------------|-------------------------|
--1----------------1-----|--4----------------4-----|--3----------------3-----|
--2----------------2-----|--4----------------4-----|--3----------------3-----|
--2----------------2-----|--6----------------6-----|--5----------------5-----|
--0----------------0-----|--6----------------6-----|--5----------------5-----|
-------------------------|--4----------------4-----|--3----------------3-----|


  W                E  E     H        H        Q     
-------------------------|--------------------2----|
--2----------------2-----|--3--------5--------3----|
--2----------------2-----|--3--------5--------4----|
--4----------------4-----|--5--------7--------4----|
--4----------------4-----|--5--------7--------2----|
--2----------------2-----|--3--------5-------------|


  E  Q    E  Q    S S E  Q       H.           H         
--3--3----3--3----3-3-3--3----|------------------------|
--5--5----5--5----5-5-5--5----|--3------------5--------|
--4--4----4--4----4-4-4--4----|--3------------5--------|
--5--5----5--5----5-5-5--5----|--5------------7--------|
--2--2----2--2----2-2-2--2----|--5------------7--------|
------------------------------|--3------------5--------|


  Q    W                   H             E  E  Q.     Q    E  E  E  Q     3x
-------2----------------|-----------||----------------2----2--3-----2-----||
--L----3----------------|-----------||---------3------3----3--5-----3-----||
--L----4----------------|-----------||*--------4------4----4--4-----4----*||
--L----4----------------|--4--------||*--4--2--4------4----4--5-----4----*||
--L----2----------------|--4--------||---4--0--2------2----2--3-----2-----||
--L---------------------|--2--------||---2--------------------------------||


  E  E     W                E  E     W                E  E   
--------|--2----------------2-----|--1----------------1-----|
--------|--3----------------3-----|--3----------------3-----|
--------|--4----------------4-----|--3----------------3-----|
--4--2--|--4----------------4-----|--3----------------3-----|
--4--0--|--2----------------2-----|--1----------------1-----|
--2-----|-------------------------|-------------------------|


  W                E  E     W                E  E     W                E  E   
--0----------------0-----|-------------------------|-------------------------|
--1----------------1-----|--4----------------4-----|--3----------------3-----|
--2----------------2-----|--4----------------4-----|--3----------------3-----|
--2----------------2-----|--6----------------6-----|--5----------------5-----|
--0----------------0-----|--6----------------6-----|--5----------------5-----|
-------------------------|--4----------------4-----|--3----------------3-----|


  W                E  E     H        H        Q     
-------------------------|--------------------2----|
--2----------------2-----|--3--------5--------3----|
--2----------------2-----|--3--------5--------4----|
--4----------------4-----|--5--------7--------4----|
--4----------------4-----|--5--------7--------2----|
--2----------------2-----|--3--------5-------------|


  E  Q    E  Q    S S E  Q       H.           H         
--3--3----3--3----3-3-3--3----|------------------------|
--5--5----5--5----5-5-5--5----|--3------------5--------|
--4--4----4--4----4-4-4--4----|--3------------5--------|
--5--5----5--5----5-5-5--5----|--5------------7--------|
--2--2----2--2----2-2-2--2----|--5------------7--------|
------------------------------|--3------------5--------|


  Q    W                   H             E  E  Q.     Q    E  E  E  Q     3x
-------2----------------|-----------||----------------2----2--3-----2-----||
--L----3----------------|-----------||---------3------3----3--5-----3-----||
--L----4----------------|-----------||*--------4------4----4--4-----4----*||
--L----4----------------|--4--------||*--4--2--4------4----4--5-----4----*||
--L----2----------------|--4--------||---4--0--2------2----2--3-----2-----||
--L---------------------|--2--------||---2--------------------------------||










Guitar 2



                               
     H            Q       E  E                     Q.     Q    E  E  E  Q     
E||--------------------|-----------------------------------------------------|
B||--------------------|-----------------------------------------------------|
G||--------------------|-----------------------------------------------------|
D||--------------------|-----------------------------------------------------|
A||--------------------|-----------------------------------------------------|
E||--------------------|-----------------------------------------------------|

                            
  E                         E  Q.     Q    E  E  E  Q     
---------------------------------------------------------|
---------------------------------------------------------|
---------------------------------------------------------|
---------------------------------------------------------|
---------------------------------------------------------|
---------------------------------------------------------|

                               
  E                        E  Q.     Q    E  E  E  Q     
--------------------------------------------------------|
--------------------------------------------------------|
--------------------------------------------------------|
--------------------------------------------------------|
--------------------------------------------------------|
--------------------------------------------------------|


  E  E  Q.     Q    E  E  E  Q       E  E  Q.     Q    E  E  E  Q     
----------------------------------|----------------------------------|
----------------------------------|----------------------------------|
----------------------------------|----------------------------------|
----------------------------------|----------------------------------|
----------------------------------|----------------------------------|
----------------------------------|----------------------------------|


  E  E  Q.     Q    E  E  E  Q       E  E  Q.     Q    E  E  E  Q     
----------------------------------|----------------------------------|
----------------------------------|----------------------------------|
----------------------------------|----------------------------------|
----------------------------------|----------------------------------|
----------------------------------|----------------------------------|
----------------------------------|----------------------------------|


  E  E  Q.     Q    E  E  E  Q       E  E  Q.     Q    E  E  E  Q     
----------------------------------|----------------------------------|
----------------------------------|----------------------------------|
----------------------------------|----------------------------------|
----------------------------------|----------------------------------|
----------------------------------|----------------------------------|
----------------------------------|----------------------------------|


  E  E  Q.     Q    E  E  E  Q       E  E  Q.     Q    E  E  E  Q     
----------------------------------|----------------------------------|
----------------------------------|----------------------------------|
----------------------------------|----------------------------------|
----------------------------------|----------------------------------|
----------------------------------|----------------------------------|
----------------------------------|----------------------------------|


                                                  You enter the room       
    E  E  Q.     Q    E  E  E  Q     3x  E  E     W                  Q     
|------------------------------------||--------|--------------------------|
|------------------------------------||--------|--------------------------|
|*----------------------------------*||--------|--------------------------|
|*----------------------------------*||--------|--------------------------|
|------------------------------------||--------|--------------------------|
|------------------------------------||--------|--------------------------|


  With a pencil in your hand         You see somebody naked                
                                                            <              
  W                          Q       H                      H.             
----------------------------------|---------------------------------------|
----------------------------------|-------------------------7~------------|
----------------------------------|---------------------------------------|
----------------------------------|---------------------------------------|
----------------------------------|---------------------------------------|
----------------------------------|---------------------------------------|


  You say Who is that man ?                         
  E                         E  E  E  H.             
---------------------------------------------------|
-------------------------------------6~------------|
----------------------------4-----4----------------|
-------------------------------4-------------------|
---------------------------------------------------|
---------------------------------------------------|


  You try so hard                           
  E               Q    E  E  E   H          
-------------------------------------------|
-----------------------------6s--8~--------|
--6-----------------------4----------------|
------------------5----4-------------------|
-------------------------------------------|
-------------------------------------------|


  But you don't understand                           
  E                        Q    E  E  E   H          
----------------------------------------------------|
--------------------------------------6s--8~--------|
--6--------------------------------4----------------|
---------------------------5----4-------------------|
----------------------------------------------------|
----------------------------------------------------|


  Just what you'll say when you get                  Home             But   
  H                                 H        Q       W                Q     
--------------------------------------------------|------------------------|
--------------------------------------------------|------------------------|
--------------------------------------------------|------------------------|
--------------------------------------------------|------------------------|
--------------------------------------------------|------------------------|
--------------------------------------------------|------------------------|


  There's Somethin' Happenin' Here You Dunno What it       
  W                                                  Q     
----------------------------------------------------------|
----------------------------------------------------------|
----------------------------------------------------------|
----------------------------------------------------------|
----------------------------------------------------------|
----------------------------------------------------------|


  W                Q       H         
------------------------|-----------|
------------------------|-----------|
------------------------|-----------|
------------------------|-----------|
------------------------|-----------|
------------------------|-----------|


       Do U ? Mister Jones                                       
    E  E                   Q.     Q    E  E  E  Q         E  E   
|-----------------------------------------------------||--------|
|-----------------------------------------------------||--------|
|*---------------------------------------------------*||--------|
|*---------------------------------------------------*||--------|
|-----------------------------------------------------||--------|
|-----------------------------------------------------||--------|


                                                             <              
  W                Q       W                Q       H        H.             
------------------------|------------------------|-------------------------|
------------------------|------------------------|-----------7~------------|
------------------------|------------------------|-------------------------|
------------------------|------------------------|-------------------------|
------------------------|------------------------|-------------------------|
------------------------|------------------------|-------------------------|


  E  E  E  E  H.               E  Q    E  E  E   H          
----------------------------|------------------------------|
--------------6~------------|----------------6s--8~--------|
-----4-----4----------------|--6----------4----------------|
--------4-------------------|-----5----4-------------------|
----------------------------|------------------------------|
----------------------------|------------------------------|


  W                Q       W                Q       W                Q     
------------------------|------------------------|------------------------|
------------------------|------------------------|------------------------|
------------------------|------------------------|------------------------|
------------------------|------------------------|------------------------|
------------------------|------------------------|------------------------|
------------------------|------------------------|------------------------|


  W                Q       W                Q       H         
------------------------|------------------------|-----------|
------------------------|------------------------|-----------|
------------------------|------------------------|-----------|
------------------------|------------------------|-----------|
------------------------|------------------------|-----------|
------------------------|------------------------|-----------|


    E  E  Q.     Q    E  E  E  Q     3x  E  E     W                Q     
|------------------------------------||--------|------------------------|
|------------------------------------||--------|------------------------|
|*----------------------------------*||--------|------------------------|
|*----------------------------------*||--------|------------------------|
|------------------------------------||--------|------------------------|
|------------------------------------||--------|------------------------|


                                    <                                           
  W                Q       H        H.               E  E  E  E  H.             
------------------------|-------------------------|----------------------------|
------------------------|-----------7~------------|--------------6~------------|
------------------------|-------------------------|-----4-----4----------------|
------------------------|-------------------------|--------4-------------------|
------------------------|-------------------------|----------------------------|
------------------------|-------------------------|----------------------------|


  E  Q    E  E  E   H            W                Q     
------------------------------|------------------------|
----------------6s--8~--------|------------------------|
--6----------4----------------|------------------------|
-----5----4-------------------|------------------------|
------------------------------|------------------------|
------------------------------|------------------------|


  W                Q       W                Q       W                Q     
------------------------|------------------------|------------------------|
------------------------|------------------------|------------------------|
------------------------|------------------------|------------------------|
------------------------|------------------------|------------------------|
------------------------|------------------------|------------------------|
------------------------|------------------------|------------------------|


  W                Q       H             E  E  Q.     Q    E  E  E  Q     3x
------------------------|-----------||------------------------------------||
------------------------|-----------||------------------------------------||
------------------------|-----------||*----------------------------------*||
------------------------|-----------||*----------------------------------*||
------------------------|-----------||------------------------------------||
------------------------|-----------||------------------------------------||




Duration Legend
---------------
W - whole
H - half
Q - quarter
E - 8th
S - 16th
T - 32nd
X - 64th
. - note dotted
|-n-|  - n-tuplets


Tablature Legend
----------------
L - tied note
x - dead note
g - grace note
(n) - ghost note
> - accentuded note
NH - natural harmonic
AH - artificial harmonic
TH - tapped harmonic
SH - semi harmonic
PH - pitch harmonic
h - hammer on
p - pull off
b - bend
br - bendRelease
pb - preBend
pbr - preBendRelease
brb - bendReleaseBend
\n/ - tremolo bar dip
\n - tremolo bar dive
-/n - tremolo bar Release up
/n\ - tremolo bar inverted dip
/n - tremolo bar return
-\n - tremolo bar Release down
S - shift slide
s - legato slide
/ -  slide into from below or out of upwards
\ -  slide into from above or out of downwards
~ - vibrato
W - wide vibrato
tr - trill
TP - tremolo picking
T - tapping
S - slap
P - pop
< - fade in
^ - brush up
v - brush down

comments
We did not receive enough feedback on this tab! Please rate:
print report bad tab
1 2 3 4 5
I want to post or [tab]
guest
You may want to rate the tab now too:
select rating
Please do not post tabs as comments. Select "correction" instead!