Oops, an error
Loading. Please wait.

I Want You Tab

25,128 views 48 this week
2 commentsread comments
1 2 3 4 5
excellent!
x 2
Autoscroll
+/-
esc
set tempo
stop
WARNING: You are trying to view
                                    content from Ultimate-Guitar.com
                                    in an unauthorized application,
                                    which is prohibited.

                                    Please use an official Ultimate
                                    Guitar Tabs application for iPhone,
                                    iPad or Android to access legitimate
                                    chords, guitar, bass, and drum tabs
                                    from Ultimate-Guitar.com database.

                                    Type "ultimate guitar tabs" in Apple
                                    App Store's or Android Market's
                                    search to find the application.
     Q    Q    E  E  Q       E   E  E  E  E  E  Q       Q    Q    E  E  Q     
E||-------0-------0-------|--1p--0-----------0-------|-------0-------0-------|
B||-------1---------------|------------3-------------|-------0---------------|
G||-------0----------0----|---------0-----------0----|-------0----------0----|
D||-----------------------|--------------------------|-----------------------|
A||--3---------3----------|--3------------3----------|--2---------2----------|
E||-----------------------|--------------------------|-----------------------|


  E   E  E  E  E  E  Q       Q    Q    E  E  Q       E   E  E  E  E  E  Q     
--1p--0-----------0-------|-------0-------0-------|--1p--0-----------0-------|
------------3-------------|-------1---------------|------------3-----1-------|
---------0-----------0----|-----------------------|--------------------------|
--------------------------|-------2----------2----|---------2-----------2----|
--2------------2----------|--0---------0----------|--0------------0----------|
--------------------------|-----------------------|--------------------------|


  Q    E  E   Q    E  E      Q    Q    Q    Q       Q    Q    E  E  Q     
--------------------------|----------------------|-------0-------0-------|
--3-------1p--0-----------|----------------------|-------1---------------|
----------------------2h--|--0-------------------|-------0----------0----|
-------0-----------0------|----------------------|-----------------------|
--------------------------|------------0----2----|--3---------3----------|
--3-----------3-----------|--3----3--------------|-----------------------|


  E   E  E  E  E  E  Q       E   E  E  E  E  E  Q     
--1p--0-----------0-------|--1p--0-----------0-------|
------------3-------------|------------3-------------|
---------0-----------0----|---------0-----------0----|
--------------------------|--------------------------|
--3------------3----------|--3------------3----------|
--------------------------|--------------------------|


    Q    E  E  E  E  Q       Q    E  E  E  E  Q       Q    E  E  E  E  Q     
|---0-------------0-------|--0-------------0-------|--0-------------0-------|
|-----------1-------------|----------1-------------|----------0-------------|
|*-------0-----------0----|-------0-----------0----|-------0-----------0----|
|*-------------2----------|-------------2----------|-------------2----------|
|---3---------------------|--3---------------------|--2---------------------|
|-------------------------|------------------------|------------------------|


  Q    E  E  E  E  Q       Q    E  E  E  E  Q       Q    E  E  E  E  Q     
--0-------------0-------|--0-------------0-------|--0-------------0-------|
----------0-------------|----------1-------------|----------1-------------|
-------0-----------0----|-------2-----------2----|-------2-----------2----|
-------------2----------|-------------2----------|-------------2----------|
--2---------------------|--0---------------------|--0---------------------|
------------------------|------------------------|------------------------|


  Q    E  E  E  E  Q       Q    E  E  E  E  Q       Q    E  E  E  E  Q     
--3-------------3-------|--3-------------3-------|--1-------------1-------|
----------0-------------|----------0-------------|----------1-------------|
-------0-----------0----|-------0-----------0----|-------2-----------2----|
-------------0----------|-------------0----------|-------------3----------|
------------------------|------------------------|------------------------|
--3---------------------|--3---------------------|--1---------------------|


  Q    E  E  E  E  Q       Q    E  E  E  E  Q       Q    E  E  E  E  Q     
--1-------------1-------|--3-------------0-------|--3-------------3-------|
----------1-------------|----------0-------------|----------0-------------|
-------2-----------2----|-------0-----------0----|-------0-----------0----|
-------------3----------|-------------0----------|-------------0----------|
------------------------|------------------------|------------------------|
--1---------------------|--3---------------------|--3---------------------|


  Q    E  E  E  E  Q       Q    E  E  E  E  Q       Q    E  E  E  E  Q     
--0-------------0-------|--0-------------0-------|--3-------------3-------|
----------1-------------|----------1-------------|----------0-------------|
-------2-----------2----|-------2-----------2----|-------0-----------0----|
-------------2----------|-------------2----------|-------------0----------|
--0---------------------|--0---------------------|------------------------|
------------------------|------------------------|--3---------------------|


  Q    Q    Q    Q       Q    Q    E  E  Q       E   E  E  E  E  E  Q     
--3-------------------|-------0-------0-------|--1p--0-----------0-------|
----------------------|-------1---------------|------------3-------------|
----------------------|-------0----------0----|---------0-----------0----|
----------------------|-----------------------|--------------------------|
------------0----2----|--3---------3----------|--3------------3----------|
--3----3--------------|-----------------------|--------------------------|


  Q    Q    E  E  Q       E   E  E  E  E  E  Q       Q    Q    E  E  Q     
-------0-------0-------|--1p--0-----------0-------|-------0-------0-------|
-------0---------------|------------3-------------|-------1---------------|
-------0----------0----|---------0-----------0----|-----------------------|
-----------------------|--------------------------|-------2----------2----|
--2---------2----------|--2------------2----------|--0---------0----------|
-----------------------|--------------------------|-----------------------|


  E   E  E  E  E  E  Q       Q    E  E   Q    E  E     Q    Q    Q    Q     
--1p--0-----------0-------|-------------------------|----------------------|
------------3-----1-------|--3-------1p--0----------|----------------------|
--------------------------|----------------------2--|--L-------------------|
---------2-----------2----|-------0-----------0-----|----------------------|
--0------------0----------|-------------------------|------------0----2----|
--------------------------|--3-----------3----------|--3----3--------------|


  Q    Q    E  E  Q       E   E  E  E  E  E  Q       Q    Q    E  E  Q     
-------0-------0-------|--1p--0-----------0-------|-------0-------0-------|
-------1---------------|------------3-------------|-------1---------------|
-------0----------0----|---------0-----------0----|-------0----------0----|
-----------------------|--------------------------|-----------------------|
--3---------3----------|--3------------3----------|--3---------3----------|
-----------------------|--------------------------|-----------------------|


                               To interlude                      
  E   E  E  E  E  E  Q         E            E  E  E  E  E  Q     
--1p--0-----------0--------||--1p-----------0-----------0-------|
------------3--------------||---------------------3-------------|
---------0-----------0----*||------------------0-----------0----|
--------------------------*||-----------------------------------|
--3------------3-----------||--3---------------------3----------|
---------------------------||-----------------------------------|


  Q    E  E  E  E  Q       Q    E  E  E  E  Q       Q    E  E  E  E  Q     
--0-------------0-------|--0-------------0-------|--0-------------0-------|
----------0-------------|----------0-------------|----------1-------------|
-------0-----------0----|-------0-----------0----|-------2-----------2----|
-------------2----------|-------------2----------|-------------2----------|
------------------------|------------------------|--0---------------------|
--0---------------------|--0---------------------|------------------------|


  Q    E  E  E  E  Q       Q    E  E  E  E  Q       Q    E  E  E  E  Q     
--0-------------0-------|--0-------------0-------|--0-------------0-------|
----------1-------------|----------0-------------|----------0-------------|
-------2-----------2----|-------0-----------0----|-------0-----------0----|
-------------2----------|-------------2----------|-------------2----------|
--0---------------------|------------------------|------------------------|
------------------------|--0---------------------|--0---------------------|


  Q    E  E  E  E  Q       Q    E  E  E  E  Q       Q    E  E  E  E  Q     
--1-------------1-------|--3-------------3-------|--3-------------3-------|
----------1-------------|----------0-------------|----------0-------------|
-------2-----------2----|-------0-----------0----|-------0-----------0----|
-------------3----------|-------------0----------|-------------0----------|
------------------------|------------------------|------------------------|
--1---------------------|--3---------------------|--3---------------------|


  Q    E  E  E  E  Q       Q    Q    Q    Q         Q    E  E  E  E  Q     
--3-------------3-------|--3-------------------||---0-------------0-------|
----------0-------------|----------------------||-----------1-------------|
-------0-----------0----|----------------------||*-------0-----------0----|
-------------0----------|----------------------||*-------------2----------|
------------------------|------------0----2----||---3---------------------|
--3---------------------|--3----3--------------||-------------------------|


  Q    E  E  E  E  Q       Q    E  E  E  E  Q       Q    E  E  E  E  Q     
--0-------------0-------|--0-------------0-------|--0-------------0-------|
----------1-------------|----------0-------------|----------0-------------|
-------0-----------0----|-------0-----------0----|-------0-----------0----|
-------------2----------|-------------2----------|-------------2----------|
--3---------------------|--2---------------------|--2---------------------|
------------------------|------------------------|------------------------|


  Q    E  E  E  E  Q       Q    E  E  E  E  Q       Q    E  E  E  E  Q     
--0-------------0-------|--0-------------0-------|--3-------------3-------|
----------1-------------|----------1-------------|----------0-------------|
-------2-----------2----|-------2-----------2----|-------0-----------0----|
-------------2----------|-------------2----------|-------------0----------|
--0---------------------|--0---------------------|------------------------|
------------------------|------------------------|--3---------------------|


  Q    E  E  E  E  Q       Q    E  E  E  E  Q       Q    E  E  E  E  Q     
--3-------------3-------|--1-------------1-------|--1-------------1-------|
----------0-------------|----------1-------------|----------1-------------|
-------0-----------0----|-------2-----------2----|-------2-----------2----|
-------------0----------|-------------3----------|-------------3----------|
------------------------|------------------------|------------------------|
--3---------------------|--1---------------------|--1---------------------|


  Q    E  E  E  E  Q       Q    E  E  E  E  Q       Q    E  E  E  E  Q     
--3-------------0-------|--3-------------3-------|--0-------------0-------|
----------0-------------|----------0-------------|----------1-------------|
-------0-----------0----|-------0-----------0----|-------2-----------2----|
-------------0----------|-------------0----------|-------------2----------|
------------------------|------------------------|--0---------------------|
--3---------------------|--3---------------------|------------------------|


  Q    E  E  E  E  Q       Q    E  E  E  E  Q       Q    Q    Q    Q     
--0-------------0-------|--3-------------3-------|--3-------------------|
----------1-------------|----------0-------------|----------------------|
-------2-----------2----|-------0-----------0----|----------------------|
-------------2----------|-------------0----------|----------------------|
--0---------------------|------------------------|------------0----2----|
------------------------|--3---------------------|--3----3--------------|


  Q    Q    E  E  Q       E   E  E  E  E  E  Q       Q    Q    E  E  Q     
-------0-------0-------|--1p--0-----------0-------|-------0-------0-------|
-------1---------------|------------3-------------|-------0---------------|
-------0----------0----|---------0-----------0----|-------0----------0----|
-----------------------|--------------------------|-----------------------|
--3---------3----------|--3------------3----------|--2---------2----------|
-----------------------|--------------------------|-----------------------|


  E   E  E  E  E  E  Q       Q    Q    E  E  Q       E   E  E  E  E  E  Q     
--1p--0-----------0-------|-------0-------0-------|--1p--0-----------0-------|
------------3-------------|-------1---------------|------------3-----1-------|
---------0-----------0----|-----------------------|--------------------------|
--------------------------|-------2----------2----|---------2-----------2----|
--2------------2----------|--0---------0----------|--0------------0----------|
--------------------------|-----------------------|--------------------------|


  Q    E  E   Q    E  E     Q    Q    Q    Q       Q    Q    E  E  Q     
-------------------------|----------------------|-------0-------0-------|
--3-------1p--0----------|----------------------|-------1---------------|
----------------------2--|--L-------------------|-------0----------0----|
-------0-----------0-----|----------------------|-----------------------|
-------------------------|------------0----2----|--3---------3----------|
--3-----------3----------|--3----3--------------|-----------------------|


  E   E  E  E  E  E  Q       Q    Q    E  E  Q       E   E  E  E  E  E  Q       
--1p--0-----------0-------|-------0-------0-------|--1p--0-----------0--------||
------------3-------------|-------1---------------|------------3--------------||
---------0-----------0----|-------0----------0----|---------0-----------0----*||
--------------------------|-----------------------|--------------------------*||
--3------------3----------|--3---------3----------|--3------------3-----------||
--------------------------|-----------------------|---------------------------||


  Q    Q    H           W                  
--0------------------|-------------------||
--1------------------|-------------------||
--0------------------|-------------------||
--2------------------|-------------------||
--3------------------|-------------------||
---------------------|-------------------||




Duration Legend
---------------
W - whole
H - half
Q - quarter
E - 8th
S - 16th
T - 32nd
X - 64th
. - note dotted
|-n-|  - n-tuplets


Tablature Legend
----------------
L - tied note
x - dead note
g - grace note
(n) - ghost note
> - accentuded note
NH - natural harmonic
AH - artificial harmonic
TH - tapped harmonic
SH - semi harmonic
PH - pitch harmonic
h - hammer on
p - pull off
b - bend
br - bendRelease
pb - preBend
pbr - preBendRelease
brb - bendReleaseBend
\n/ - tremolo bar dip
\n - tremolo bar dive
-/n - tremolo bar Release up
/n\ - tremolo bar inverted dip
/n - tremolo bar return
-\n - tremolo bar Release down
S - shift slide
s - legato slide
/ -  slide into from below or out of upwards
\ -  slide into from above or out of downwards
~ - vibrato
W - wide vibrato
tr - trill
TP - tremolo picking
T - tapping
S - slap
P - pop
< - fade in
^ - brush up
v - brush down
comments
We did not receive enough feedback on this tab! Please rate:
1 2 3 4 5
2 comments total.
0 reply
Cargen wrote on February 13 2010, 08:20 pm

This Tab is 100% correct, except that its capo on 5.

0 reply
Cargen wrote on February 13 2010, 08:24 pm

Actually this tap is like 90% correct. you missed alot of fills.

I want to post or [tab]
guest
You may want to rate the tab now too:
select rating
Please do not post tabs as comments. Select "correction" instead!