Oops, an error
Loading. Please wait.

Love Is Everywhere Tab

137 views 3 this week
1 commentread comment
1 2 3 4 5
please rate
add to favorites launch autoscroll
font size
0
reset
Autoscroll
+/-
esc
set tempo
stop
Contributor
Difficulty
intermediate
WARNING: You are trying to view
                                    content from Ultimate-Guitar.com
                                    in an unauthorized application,
                                    which is prohibited.

                                    Please use an official Ultimate
                                    Guitar Tabs application for iPhone,
                                    iPad or Android to access legitimate
                                    chords, guitar, bass, and drum tabs
                                    from Ultimate-Guitar.com database.

                                    Type "ultimate guitar tabs" in Apple
                                    App Store's or Android Market's
                                    search to find the application.
I have studied a lot of videos of this song, and I am pretty sure this is exactly how
Bob plays it.  I have seen some videos where he moves the capo to the 4th fret, but
everything else stays the same.  I won't put the timing in here, just the picking 
patterns for the different parts of the song.


Capo 5

Picking pattern for the intro(follow the same pattern for the first half of the verse)

       D        A        G
e------2---------------------------------------|
B------3--------2--------3----------------2----|
G----2---2------2--------0--------0-----0---0--|
D--0----------2---2----0---0----4---4\2--------|
A-----------0-----------------0----------------|
E--------------------3-------------------------|


Picking pattern for the end of each verse

e-------------------------------------|
B------2--------3--------5--------7---|
G------2--------0--------0--------0---|
D----2---2----4---4----5---5----7-----|
A--0--------0--------0--------0-------|
E-------------------------------------|


End Verse


   I   don't    know   why    life      it seems to be
e--------2------------------------------------------------|
B--------3--------------2-----------3----------------2----|
G-----2------2----------2-----------0--------0-----0---0--|
D--0-----------------2-----2------0---0----4---4\2--------|
A----------------0-----------------------0----------------|
E-------------------------------3-------------------------|


   Love      is       Love     is       Love    is       Ev  -   ry
e-------------------------------------------------------------------------|
B-----------3------------------3----------------0----------------2--------|
G-------0-----0---0--------0-----0---0------0-----0---0------2-----2---2--|
D-----0---0-----0--------4---4-----4------0---0-----0------2---2-----2----|
A----------------------0---------------------------------0----------------|
D--3------------------------------------3---------------------------------|



D                                     A
Soon Yi was a pilot in the nationally known
G                     D
Amazing ladies of the outer ozone

She didn't have no kids she didn't have no time
She was a woman of her word, she was a fighter of crime

She looked good in a hat, she had a natural way
With tools and no car she went to UCLA

    D                                    A
And everybody said she was as crazy as a loon
     G                                     D
When she was a girl she'd spend every afternoon

Sitting in her backyard pretending to be
A fighter ace in the Japanese military

She liked to make up her mind, she kept her feet in the air
She wore her heart on her sleeve, cause she'd found it there

           D                                          A
And it was all well and good until she met this young man
        G                                  A
A young pilot named steve with a beautiful tan

He spoke English and French and swam like a swan
He had a mouth full of teeth and more style than Cйzanne

He could talk to the bees, he could breathe in the air
He wore his heart on his sleeve, cause he liked it there

           D                                         A
And they'd sit in the trees and they'd talk thru the night
          G                                  D
While the blind moon swam in the pale starry light

And they talked and they crowed and they told what they knew
It was better than beer, it was all strange and new

There was grass all around, there was black up above
It was more than hello, it was something like love

And I don't know why life, it seems to be
So hard for dreamers like you and me
When love is, love is, love is everywhere
comments
We did not receive enough feedback on this tab! Please rate:
1 2 3 4 5
1 comment total.
0 reply
montiac84 wrote on January 26 2013, 05:15 am

Made a mistake on the third verse where it says, "with a beautiful tan." It should have a D above it, not an A. Sorry about that.

I want to post or [tab]
guest
You may want to rate the tab now too:
select rating
Please do not post tabs as comments. Select "correction" instead!