Oops, an error
Loading. Please wait.

Old Time Rock And Roll Tab

ver1
ver1

Whole song

Interactive

More versions @911Tabs.com
117,192 views 244 this week
7 commentsread comments
1 2 3 4 5
accurate
x 27
Autoscroll
+/-
esc
set tempo
stop
Contributor
Hey! There's an official Ultimate Guitar app which is ideal
for learning songs when you're away from computer. Get the app
WARNING: You are trying to view
                                    content from Ultimate-Guitar.com
                                    in an unauthorized application,
                                    which is prohibited.

                                    Please use an official Ultimate
                                    Guitar Tabs application for iPhone,
                                    iPad or Android to access legitimate
                                    chords, guitar, bass, and drum tabs
                                    from Ultimate-Guitar.com database.

                                    Type "ultimate guitar tabs" in Apple
                                    App Store's or Android Market's
                                    search to find the application.
tuning:standard
tabbed by:a crazy teenage rock and roll fan
Artist:Bob Seger
Song:old time rock and roll
Album:not sure
Year:1977

intro. (done with piano, arr. for guitar)
E|------------------------------------------|
B|------------------------------------------|
G|------------------------------------------|
D|------------------------------------------|
A|-9-9-9-9-9--------------9-9-9-9-9---------|
E|-----------12-11-9----------------12-11-9-|

F#
just take those old records off the shelf
                           B
ill sit and listen to them by myself
                  C# 
todays music aint got the same soul
                     F#
i like that old time rock and roll

C#                         F# 
dont try to take me to a disco
                        B
youll never even get me out on the floor
                      C#
in ten minutes ill be leavin for the door
                     F# 
i like that old time rock and roll

C#                       F#
still like that old time rock and roll
                        B
that kind of music just soothes the soul
                     C# 
i reminise abuot the days of gold
                   F# 
with that old time rock and roll

C#                            F#
wont go to hear them play a tango
                              B
id rather hear some blues and funky old soul
                            C#
theres only one sure way to get me to go
                       F#
start playing old time rock and roll

C#                      F#
call me a relic call me what you will
                            B  
say im old fashioned say im over the hill
                  C#
todays music aint got the same soul
                     F#
i like that old time rock and roll

C#                       F#
still like that old time rock and roll
                        B
that kind of music just soothes the soul
                     C#
i reminise about the days of gold 
                   F#
with that old time rock and roll



then just repeat the chorus two more times

theres also a solo that i came up with.
it is SIMILAR to the outro solo but it sounds great if you
try it. When i was in a band i played this outro solo. it is one
of my favorite songs.

E|-------------------------------|
B|-9b9-7-9b9-7-9b9-7-9b9-7-9b9-7-|
G|-------------------------------|
D|-------------------------------|
A|-------------------------------|
E|-------------------------------|

E|-------------------------------|
B|-9b9-7-9b9-7-9b9-7-9b9-7-9b9-7-|
G|-------------------------------|
D|-------------------------------|
A|-------------------------------|
E|-------------------------------|

E|---------------------------------------------14======----|
B|-9-9-9-9-9-9-9-9-9-10-9-7-9-10-7h9h10--9=====------------|
G|---------------------------------------------------------|
D|---------------------------------------------------------|
A|---------------------------------------------------------|
E|-----------------------------------------------------14\-|

hope u like it.

I STILL LOVE THAT OLD TIME ROCK AND ROLL!!!!!!!
comments
print report bad tab
7 comments total. Showing first comments.
+1 reply
TameTheTurser wrote on March 5 2007, 05:45 am

wrong cords they are C F G C G


and the opening lead is

intro. (done with piano, arr. for guitar)
e|------------------------------------------|
B|------------------------------------------|
G|------------------------------------------|
D|------------------------------------------|
A|--3--3--3--3--3--1--0---------------------|
E|-----------------------3------------------|


atleast thats how i saw bob's guitarist play it.... i got lucky backstage vip!!!!



FYI bob wont sign anything :(

0 reply
redneckrocker2 wrote on March 20 2007, 05:03 pm

i learned the live version and i used E A and B with a bunch of hammers and pull off and stuff

+1 reply
jerseyguitarman wrote on January 10 2008, 09:22 am

yeah, but for the recorded version thats right

I want to post or [tab]
guest
You may want to rate the tab now too:
select rating
Please do not post tabs as comments. Select "correction" instead!