Oops, an error
Loading. Please wait.

Gaffer Tab

2,809 views 3 this week
no commentswrite comment
1 2 3 4 5
accurate
x 1
Autoscroll
+/-
esc
set tempo
stop
Contributor
Hey! There's an official Ultimate Guitar app which is ideal
for learning songs when you're away from computer. Get the app
WARNING: You are trying to view
                                    content from Ultimate-Guitar.com
                                    in an unauthorized application,
                                    which is prohibited.

                                    Please use an official Ultimate
                                    Guitar Tabs application for iPhone,
                                    iPad or Android to access legitimate
                                    chords, guitar, bass, and drum tabs
                                    from Ultimate-Guitar.com database.

                                    Type "ultimate guitar tabs" in Apple
                                    App Store's or Android Market's
                                    search to find the application.
interpret:      Bodo Wartke
song:           Gaffer HH-Version 
capo:           0
album:          Ich denke, also sing' ich
setting:        standard

    C     C#    D     E     E7   Eaug  E/G    A   Ab/G    B    Bb
e|--3--|--4--|--2--|--0--|--0--|--0--|--0--|--0--|--1--|--2--|--1--|
B|--5--|--6--|--3--|--0--|--0--|--1--|--0--|--2--|--1--|--4--|--3--|
G|--5--|--6--|--2--|--1--|--1--|--1--|--1--|--2--|--1--|--4--|--3--|
D|--5--|--6--|--0--|--2--|--0--|--2--|--2--|--2--|--1--|--4--|--3--|
A|--3--|--4--|--x--|--2--|--2--|--3--|--2--|--0--|--0--|--2--|--1--|
E|--3--|--4--|--x--|--0--|--0--|--0--|--3--|--x--|--x--|--2--|--1--|


| /  slide up
| \  slide down
| h  hammer-on
| p  pull-off
| ~  vibrato
| +  harmonic
| x  Mute note


You have to use these sections in the following song

           I                                I*
e|--------------------|      e|-----------------------------|
B|--------------------|      B|-----------------------------|
G|--------------------|      G|-----------------------------|
D|-2-2--4-4--5--4-4p0-|      D|-2-2--4-4--5--4-4p0----------|
A|-2-2--4-4--5--4-4p0-|      A|-2-2--4-4--5--4-4p0--2-------|
E|--------------------|      E|-----------------------2-3-4-|

         II                    III
e|------------------|        e|-x-|
B|------------------|        B|-x-|
G|-2-2--4-4--5--4p0-|        G|-x-|
D|-2-2--4-4--5--4p0-|        D|-x-|
A|------------------|        A|-x-|
E|------------------|        E|-x-|


===============================================

   A               E               E7              A
e|-----------------------------------------------------------------|
B|-2-----2-----2---0-----0-----0---0-----0-----0---2-----2-----2---|
G|---2-----2-----2---1-----1-----1---1-----1-----1---2-----2-----2-|
D|-----2-----2---------2-----2---------0-----0---------2-----2-----|
A|-0---------------2---------------2---------------0---------------|
E|-----------------------------------------------------------------|

Manche geh’n ins Fitnesscenter, 
andere ins Solarium. 
Manche haben Hunde, Katzen, 
andere ein Aquarium. 

   D               B               B7              B   E
e|-2-----2-----2-----------------------------------------|
B|---3-----3-----3-4-----4-----4---0-----0-----0---4---0-|
G|-----2-----2-------4-----4-----4---2-----2-----2-4---1-|
D|-0-------------------4-----4---------1-----1-----4---2-|
A|-----------------2---------------2---------------2---2-|
E|-------------------------------------------------------|

Manche sammeln Briefmarken, 
andere sammeln Geld. 
Manche sammeln: was weiß ich?! 
- naja, wem’s halt gefällt... 

   A               E               E7              A
e|-----------------------------------------------------------------|
B|-2-----2-----2---0-----0-----0---0-----0-----0---2-----2-----2---|
G|---2-----2-----2---1-----1-----1---1-----1-----1---2-----2-----2-|
D|-----2-----2---------2-----2---------0-----0---------2-----2-----|
A|-0---------------2---------------2---------------0---------------|
E|-----------------------------------------------------------------|


Manche kegeln im Verein, 
andere spielen Skat. 
Manche reden über Fußball, 
andere fahren Fahr - rad. 

   D               B               B7                E   Eaug
e|-2-----2-----2-------------------------------------------|
B|---3-----3-----3-4-----4-----4---0-----0-----0-----0---1-|
G|-----2-----2-------4-----4-----4---2-----2-----2---1---1-|
D|-0-------------------4-----4---------1-----1-----1-2---2-|
A|-----------------2---------------2-----------------2---3-|
E|---------------------------------------------------------|


Ob Wiesen, Felder oder 
Wälder zu durchwandern 
- alles nix für mich! 
Ich bin anders (als die anderen)... 


2x I


I                           I
Letzte Woche war das, ich erinn’re mich genau,
         I                           I
da stand ich mit meiner Frau auf der Autobahn im Stau. 
        II                         II
Und ich sag zu meiner Frau: da ist sicher was passiert. 
   I                                       I
Da fahr’n wir jetzt mal hin, weil mich das brennend interessiert. 
        B                       Bb
Und ich saus’ mit quietschenden Reifen 
       A             Ab/F
über’n breiten Seitenstreifen 
B
hinaus bis an die Spitze des Staus.


      I                              I
Siehe da, da liegt ein Auto, das ist grade am Verbrennen.
III
Drinnen sind Leute eingeklemmt! ...keine, die wir kennen.

e|-0-|
B|-5-|
G|---|
D|---|
A|---|
E|---| II                           II
   Fünfmeter hohe Flammen! Voll das Abenteuer, yeah!
    I                                    I
Hey toll, wir sind hier die ersten! Noch vor der Feuerwehr!
                B            Bb  A
Ich halt’ alles fest auf V - H - S, damit ich’s nicht vergess’: 



INSERTED TEXT:

3x I

“Schatz, stell’ dich doch bitte einmal vor die verkohlte Leiche...
Ja, sehr schön! Und jetzt: Lächeln!“


            I*
Ich bin ein Gaffer. 
                               II       II
Ja, am Gaffen find’ ich vollen Gefallen. (Gefallen)
            B      Bb A
Ich bin ein Gaffer. 

e|------------------------------------0------4----3----2-----2-2-2-2-|
B|------------------------------------0------4----3----2-----4-4-4-4-|
G|------------------------------------1--3/4-4--3-3--2-2--1--4-4-4-4-|
D|------------------------------------2----------------------4-4-4-4-|
A|------------------------------------2----------------------2-2-2-2-|
E|------------------------------------3----------------------2-2-2-2-|
   Ja, das ist das schönste Hobby von allen. 


     I                                     I
Beim Schlittschuhlaufen bricht ein kleines Kind ein ins Eis. 
       I*
Um die Einbruchstelle bildet sich sofort ein großer Kreis. 
    II                            II
Wie immer stell’ ich mich schnell in die erste Reih’. 
III
Schade, gerade jetzt hab’ ich die Kamera nicht dabei!
           B    Bb A         
Das kleine Kind versinkt und ertrinkt. 


INSERTED TEXT:

4x I

“Na, wo war denn wieder der Rettungswagen? Das frag’ ich Sie.
Ja, ja, Sie haben völlig Recht. Man hätte es vermeiden können.
Aber die sind ja immer zu langsam! Typisch.“ 

    III                           III
Man könnt’ ja selber helfen, aber seien wir doch mal ehrlich! 

e|-x----------------------0----0----0----0---|
B|-x----------------------5px--5px--5px--5px-|
G|-x-----------------------------------------|
D|-x-----------------------------------------|
A|-x-----------------------------------------|
E|-x-----------------------------------------|
   Das ist für uns Gaffer viel zu gefährlich.
      I                               I
Hätte ich zum Hilfeleisten mich auf’s Eis verirrt, 
          III
weiß ich, dass, wenn ich jetzt auch einbräch’, mir keiner helfen würd’. 
           B               Bb A
Ein Teufelskreis! Hör mein Geheiß: Begib dich nie auf dünnes Eis. 
I                                       I
So mal jetzt ganz allgemein gesprochen, quasi als Metapher. 


            I*
Ich bin ein Gaffer. 
                                       II    II
Für mich fast schon wie geschaffen als Beruf. 
            B      Bb A
Ich bin ein Gaffer. 

e|---------------------0------4----3----2-----2-2-2-2-|
B|---------------------0------4----3----2-----4-4-4-4-|
G|---------------------1--3/4-4--3-3--2-2--1--4-4-4-4-|
D|---------------------2----------------------4-4-4-4-|
A|---------------------2----------------------2-2-2-2-|
E|---------------------3----------------------2-2-2-2-|
   Ich hab’ den Gaffer-Groove. 
            III                      III
Bin neulich zufällig geraten an ’nen Selbstmordkandidaten. 

e|----x------------------------------------------------------|
B|----x------------------------------------------------------|
G|----x------------------------------------------------------|
D|----x------------------------------------------------------|
A|----x------------------------------------------------------|
E|----x-------------------------------0---------2------3-----|
  Der stand auf einer Brücke, und ich konnt’ es kaum erwarten.

e|--------------------------------------------------------4p3p0-|
B|--------------------------------------------------------------|
G|--------------------------------------------------------------|
D|--------------------------------------------------------------|
A|-----0--------------------------------------------------------|
E|-4------------------------------------------------------------|
   Ich rief ihm zu: „Spring schon!“ - Er wirkte irritiert
                          B
sprang aber trotzdem. Ich hab’s fotografiert. 


I                        I
Gaffen ist nicht nur ein spannender Sport, 
         I*
nein, im Unglücksorttourismus halt’ ich auch noch den Rekord: 
         II                               II
Weil bei mir zu Hause kaum Katastrophen gescheh’n, 
               III
fahr’ ich halt hin, wo welche sind, um sie mir live anzuseh’n. 
    B           C         C#          D
Die richtigen Desaster, Infernos, Havarien 
B
zieh’n mich magisch an, kann Ihnen nicht entflieh’n: 


         II                        II
Bei ’nem Flugzeugabsturz oder beim Oderbruch, 

e|---------------x----x----------x---------------x---x--|
B|---------------x----x----------x---------------x---x--|
G|---------------x----x----------x---------------x---x--|
D|---------------x----x----------x---------------x---x--|
A|---------------x----x----------x---------------x---x--|
E|---------------x----x----------x---------------x---x--|
   oder bei ’ner Eisenbahnentgleisung, komm’ ich zum Zug,
    II                           II
zum Beispiel beim ICE in Eschede fand 
        B
ich zum Gaffen ein Schlaraffenland. 


I                                 I
Weil ich so sehr nach Sensationen gier’, 
                  I*
kommt es auch mal vor, dass ich sie selber provozier’. 
    II                                  II
Der Vorteil: Ich bestimme den Geschehensort 
I                        I
und bin sofort immer als erster dort. 



   B                          Bb  A
So wuss't ich nämlich gleich, das wird ’ne kurze Tour, 

e|-----------0-------4-------3-----2------2-|
B|-----------0---------0-------0-----0----4-|
G|-----------1---3/4-------3-----2--------4-|
D|-----------2----------------------------4-|
A|-----------2----------------------------2-|
E|-----------3----------------------------2-|    B
   als die Diana mit ihrem Scheich in den Tunnel fuhr. 


    I                                   I
Für Fotos von so was zahlt man mir viel Geld, 
         I*
weil das Gaffen offenbar nicht nur mir allein gefällt. 
     II                            II
Denn worin wir uns beim Gaffen vom Affen unterscheiden, 
         III
ist, wie sehr wir uns am Leiden unserer Artgenossen weiden. 



e|-------------------8------------8-------------8------------------------|
B|-------9---------9---9-------10---10-------11---11---------9-----------|
G|-----9---9-----7-------7---7---------7---7---------7-----9---9---------|
D|---9-------9---------------------------7---------------9---------------|
A|-7-----------7-----------7---------------------------7-------------5-2-|
E|---------------------------------------------------------------8-9-----|

Doch immerhin 
der Vorwurf vor diesen 
die Augen zu verschließen, 
kann bei mir nicht stimmen. 
Ich gucke ja hin.



e|-----4-----3-----2----------0-|
B|-------0-----0-----0-------0--|
G|-3/4-----3-----2-----1----1---|
D|-------------------------2----|
A|------------------------2-----|
E|-----------------------3------|

===============================================

tabbed by Master_Pi
comments
We did not receive enough feedback on this tab! Please rate:
print report bad tab
1 2 3 4 5
I want to post or [tab]
guest
You may want to rate the tab now too:
select rating
Please do not post tabs as comments. Select "correction" instead!