Oops, an error
Loading. Please wait.

Ach Sie Suchen Streit Tab

ver1
ver1

Whole song

Interactive

More versions @911Tabs.com
5,601 views 6 this week
no commentswrite comment
1 2 3 4 5
excellent!
x 5
Autoscroll
+/-
esc
set tempo
stop
Contributor
Difficulty
intermediate
WARNING: You are trying to view
                                    content from Ultimate-Guitar.com
                                    in an unauthorized application,
                                    which is prohibited.

                                    Please use an official Ultimate
                                    Guitar Tabs application for iPhone,
                                    iPad or Android to access legitimate
                                    chords, guitar, bass, and drum tabs
                                    from Ultimate-Guitar.com database.

                                    Type "ultimate guitar tabs" in Apple
                                    App Store's or Android Market's
                                    search to find the application.
-------------------------------------------------------------------------------
                 Ach, Sie suchen Streit? - Böhse Onkelz
-------------------------------------------------------------------------------


Album: Wir ham' noch lange nicht genug
Tabbed By: Eric Tobian
e-mail: starcraftx@hotmail.de

Tuning: EADGBe
Tempo: 170

Intro: (0:00)

   A A A A A A A A   A A A A A V.   A A A A A A A A   A A A A A V.
e|-----------------|--------------|-----------------|--------------|
B|-----------------|--------------|-----------------|--------------|
G|-----------------|--------------|-----------------|--------------|
D|-----5-----5-----|-5---5---5-7--|-----5-----5-----|-5---5---5-7--|
A|-----5-----5-----|-5---5---5-7--|-----5-----5-----|-5---5---5-7--|
E|-0-0---0-0---0-0-|---0---0------|-0-0---0-0---0-0-|---0---0------|
   A A A A A A A A   A A A A A V.   A A A A A A A A   A A A A A V.
e|-----------------|--------------|-----------------|--------------|
B|-----------------|--------------|-----------------|--------------|
G|-----------------|--------------|-----------------|--------------|
D|-----5-----5-----|-5---5---5-7--|-----5-----5-----|-5---5---5-7--|
A|-----5-----5-----|-5---5---5-7--|-----5-----5-----|-5---5---5-7--|
E|-0-0---0-0---0-0-|---0---0------|-0-0---0-0---0-0-|---0---0------|

Band: (0:12)

   A A A A A A A A   A A A A A V.   A A A A A A A A   A A A A A V.
e|-----------------|--------------|-----------------|--------------|
B|-----------------|--------------|-----------------|--------------|
G|-----------------|--------------|-----------------|--------------|
D|-----5-----5-----|-5---5---5-7--|-----5-----5-----|-5---5---5-7--|
A|-----5-----5-----|-5---5---5-7--|-----5-----5-----|-5---5---5-7--|
E|-0-0---0-0---0-0-|---0---0------|-0-0---0-0---0-0-|---0---0------|
   A A A A A A A A   A A A A A V.   A A A A A A A A   A A A A A V.
e|-----------------|--------------|-----------------|--------------|
B|-----------------|--------------|-----------------|--------------|
G|-----------------|--------------|-----------------|--------------|
D|-----5-----5-----|-5---5---5-7--|-----5-----5-----|-5---5---5-7--|
A|-----5-----5-----|-5---5---5-7--|-----5-----5-----|-5---5---5-7--|
E|-0-0---0-0---0-0-|---0---0------|-0-0---0-0---0-0-|---0---0------|

1. Verse: (0:23)

   A A A A A A A A   A A A A A V.   A A A A A A A A   A A A A A V.
e|-----------------|--------------|-----------------|--------------|
B|-----------------|--------------|-----------------|--------------|
G|-----------------|--------------|-----------------|--------------|
D|-----5-----5-----|-5---5---5-7--|-----5-----5-----|-5---5---5-7--|
A|-----5-----5-----|-5---5---5-7--|-----5-----5-----|-5---5---5-7--|
E|-0-0---0-0---0-0-|---0---0------|-0-0---0-0---0-0-|---0---0------|
   V  A A A A A A    V   A A A A A A    V   A A A A A A   V
e|----------------|------------------|------------------|----------|
B|----------------|------------------|------------------|----------|
G|----------------|------------------|------------------|----------|
D|-5--x-x-5-x-x-5-|-(5)--x-x-5-x-x-7-|-(7)--x-x-7-7-7-7-|-7--------|
A|-3--3-3-3-3-3-3-|-(3)--3-3-3-3-3-5-|-(5)--5-5-5-5-5-5-|-5--------|
E|----------------|------------------|------------------|----------|

Chorus: (0:35)

   V  V  A A V    V  V  A A V    V  V  A A V    V  V  A A V
e|--------------|--------------|--------------|--------------|
B|--------------|--------------|--------------|--------------|
G|--------------|--------------|--------------|--------------|
D|-9--9--x-x-9--|--------------|--------------|--------------|
A|-7--7--7-7-7--|-9--9--x-x-9--|-7--7--x-x-7--|-7--7--x-x-7--|
E|--------------|-7--7--7-7-7--|-5--5--5-5-5--|-5--5--5-5-5--|
   V  V  A A V    V  V  A A V    V  V  A A V    V  V  A A V
e|--------------|--------------|--------------|--------------|
B|--------------|--------------|--------------|--------------|
G|--------------|--------------|--------------|--------------|
D|-9--9--x-x-9--|--------------|--------------|--------------|
A|-7--7--7-7-7--|-9--9--x-x-9--|-7--7--x-x-7--|-7--7--x-x-7--|
E|--------------|-7--7--7-7-7--|-5--5--5-5-5--|-5--5--5-5-5--|

   V  V  A A V    V  V  A A V    V  V  A A V    V  V  A A V
e|--------------|--------------|--------------|--------------|
B|--------------|--------------|--------------|--------------|
G|--------------|--------------|--------------|--------------|
D|-9--9--x-x-9--|--------------|--------------|--------------|
A|-7--7--7-7-7--|-9--9--x-x-9--|-7--7--x-x-7--|-7--7--x-x-7--|
E|--------------|-7--7--7-7-7--|-5--5--5-5-5--|-5--5--5-5-5--|
   V  V  A A V    V  V  A A V    V  V  A A V    V  V  A A V
e|--------------|--------------|--------------|--------------|
B|--------------|--------------|--------------|--------------|
G|--------------|--------------|--------------|--------------|
D|-9--9--x-x-9--|--------------|--------------|--------------|
A|-7--7--7-7-7--|-9--9--x-x-9--|-7--7--x-x-7--|-7--7--x-x-7--|
E|--------------|-7--7--7-7-7--|-5--5--5-5-5--|-5--5--5-5-5--|

Interlude: (0:58)

   A A A A A A A A   A A A A A V.   A A A A A A A A   A A A A A V.
e|-----------------|--------------|-----------------|--------------|
B|-----------------|--------------|-----------------|--------------|
G|-----------------|--------------|-----------------|--------------|
D|-----5-----5-----|-5---5---5-7--|-----5-----5-----|-5---5---5-7--|
A|-----5-----5-----|-5---5---5-7--|-----5-----5-----|-5---5---5-7--|
E|-0-0---0-0---0-0-|---0---0------|-0-0---0-0---0-0-|---0---0------|

2. Verse: (1:03)

   A A A A A A A A   A A A A A V.   A A A A A A A A   A A A A A V.
e|-----------------|--------------|-----------------|--------------|
B|-----------------|--------------|-----------------|--------------|
G|-----------------|--------------|-----------------|--------------|
D|-----5-----5-----|-5---5---5-7--|-----5-----5-----|-5---5---5-7--|
A|-----5-----5-----|-5---5---5-7--|-----5-----5-----|-5---5---5-7--|
E|-0-0---0-0---0-0-|---0---0------|-0-0---0-0---0-0-|---0---0------|
   V  A A A A A A    V   A A A A A A    V   A A A A A A   V
e|----------------|------------------|------------------|----------|
B|----------------|------------------|------------------|----------|
G|----------------|------------------|------------------|----------|
D|-5--x-x-5-x-x-5-|-(5)--x-x-5-x-x-7-|-(7)--x-x-7-7-7-7-|-7--------|
A|-3--3-3-3-3-3-3-|-(3)--3-3-3-3-3-5-|-(5)--5-5-5-5-5-5-|-5--------|
E|----------------|------------------|------------------|----------|

Chorus: (1:14)

   V  V  A A V    V  V  A A V    V  V  A A V    V  V  A A V
e|--------------|--------------|--------------|--------------|
B|--------------|--------------|--------------|--------------|
G|--------------|--------------|--------------|--------------|
D|-9--9--x-x-9--|--------------|--------------|--------------|
A|-7--7--7-7-7--|-9--9--x-x-9--|-7--7--x-x-7--|-7--7--x-x-7--|
E|--------------|-7--7--7-7-7--|-5--5--5-5-5--|-5--5--5-5-5--|
   V  V  A A V    V  V  A A V    V  V  A A V    V  V  A A V
e|--------------|--------------|--------------|--------------|
B|--------------|--------------|--------------|--------------|
G|--------------|--------------|--------------|--------------|
D|-9--9--x-x-9--|--------------|--------------|--------------|
A|-7--7--7-7-7--|-9--9--x-x-9--|-7--7--x-x-7--|-7--7--x-x-7--|
E|--------------|-7--7--7-7-7--|-5--5--5-5-5--|-5--5--5-5-5--|

   V  V  A A V    V  V  A A V    V  V  A A V    V  V  A A V
e|--------------|--------------|--------------|--------------|
B|--------------|--------------|--------------|--------------|
G|--------------|--------------|--------------|--------------|
D|-9--9--x-x-9--|--------------|--------------|--------------|
A|-7--7--7-7-7--|-9--9--x-x-9--|-7--7--x-x-7--|-7--7--x-x-7--|
E|--------------|-7--7--7-7-7--|-5--5--5-5-5--|-5--5--5-5-5--|
   V  V  A A V    V  V  A A V    V  V  A A V    V  V  A A V
e|--------------|--------------|--------------|--------------|
B|--------------|--------------|--------------|--------------|
G|--------------|--------------|--------------|--------------|
D|-9--9--x-x-9--|--------------|--------------|--------------|
A|-7--7--7-7-7--|-9--9--x-x-9--|-7--7--x-x-7--|-7--7--x-x-7--|
E|--------------|-7--7--7-7-7--|-5--5--5-5-5--|-5--5--5-5-5--|

Solo: (1:36)

    A   A  A  A  A  A  A  A    A  A  A  A  A  A   A   A
e|-----12-12-12-12-------12-|-12-12----------12-(12)-12-|
B|-----12-12-12-12-10----12-|-12-12-10----10-12-(12)-12-|
G|--------------------12----|----------12---------------|
D|--------------------------|---------------------------|
A|-(7)----------------------|---------------------------|
E|-(5)----------------------|---------------------------|
    A  A  A  A  A  A   A   A    A  A  A  A  A  A  A  A
e|-12-12----------12-(12)-12-|-12-12-------------------|
B|-12-12-10----10-12-(12)-12-|-12-12-10----10----------|
G|----------12---------------|----------12----12-------|
D|---------------------------|-------------------12-12-|
A|---------------------------|-------------------------|
E|---------------------------|-------------------------|

     H      A   V  A     S  S  S  S   S  S  S  S   S  S  S  S   S  S  S  S
e|-------------10-12-|-t15p12p10h12-t15p12p10h12-t15p12p10h12-t15p12p10h12-|
B|-------------------|-----------------------------------------------------|
G|-------------------|-----------------------------------------------------|
D|-(12)---(12)-------|-----------------------------------------------------|
A|-------------------|-----------------------------------------------------|
E|-------------------|-----------------------------------------------------|
     S  S  S  S   S  S  S  S   S  S  S  S   S  S  S  S    A  A A A A A V
e|-t15p12p10h12-t15p12p10h12-t15p12p10h12-t15p12p10h12-|-10-10-9-7-5-7-5--|
B|-----------------------------------------------------|------------------|
G|-----------------------------------------------------|------------------|
D|-----------------------------------------------------|------------------|
A|-----------------------------------------------------|------------------|
E|-----------------------------------------------------|------------------|

   A A A A H      A A A  A A A A A    A A A  A A A A A    A A A  A A A A A
e|-3-5-3-0-3---|-10-7-6-10-7-6-7-6-|-10-7-6-10-7-6-7-6-|-10-7-6-10-7-6-7---|
B|-------------|-------------------|-------------------|-----------------8-|
G|-------------|-------------------|-------------------|-------------------|
D|-------------|-------------------|-------------------|-------------------|
A|-------------|-------------------|-------------------|-------------------|
E|-------------|-------------------|-------------------|-------------------|
    H     A   V  A     S  S  S  S   S  S  S  S   S  S  S  S   S  S  S  S
e|-----------10-12-|-t15p12p10h12-t15p12p10h12-t15p12p10h12-t15p12p10h12-|
B|-(8)---(8)-------|-----------------------------------------------------|
G|-----------------|-----------------------------------------------------|
D|-----------------|-----------------------------------------------------|
A|-----------------|-----------------------------------------------------|
E|-----------------|-----------------------------------------------------|

    A  A  A A  A A A A   S S S S  S S S S  S S S S  S S S S
e|-12-11-10-9----7-7-7-|-6p3h6p3h-6p3h6p3h-6p3h6p3h-6p3h6p3h-|
B|------------10-------|-------------------------------------|
G|---------------------|-------------------------------------|
D|---------------------|-------------------------------------|
A|---------------------|-------------------------------------|
E|---------------------|-------------------------------------|
   S S S S  S S S S  S S S S  S S S S     G
e|-6p3h6p3h-6p3h6p3h-6p3h6p3h-6p3h6p3h-|-10-|
B|-------------------------------------|----|
G|-------------------------------------|----|
D|-------------------------------------|----|
A|-------------------------------------|----|
E|-------------------------------------|----|

Break: (2:00)

     V    V    H       V    V    H     V  V
e|-(10)-(10)-(10)--|-(10)-(10)-(10)--|------------|------------|
B|-----------------|-----------------|------------|------------|
G|-----------------|-----------------|------------|------------|
D|---9----9--------|-----------------|------------|------------|
A|---7----7--------|---9----9--------|-7--7-------|------------|
E|-----------------|---7----7--------|-5--5-------|------------|
   V  V         V  V         V  V
e|------------|------------|------------|------------|
B|------------|------------|------------|------------|
G|------------|------------|------------|------------|
D|-9--9-------|------------|------------|------------|
A|-7--7-------|-9--9-------|-7--7-------|------------|
E|------------|-7--7-------|-5--5-------|------------|

   V  V         V  V         V  V
e|------------|------------|------------|------------|
B|------------|------------|------------|------------|
G|------------|------------|------------|------------|
D|-9--9-------|------------|------------|------------|
A|-7--7-------|-9--9-------|-7--7-------|------------|
E|------------|-7--7-------|-5--5-------|------------|
   V  V         V  V         V  V         G
e|------------|------------|------------|------------|
B|------------|------------|------------|------------|
G|------------|------------|------------|------------|
D|-9--9-------|------------|------------|-0/---------|
A|-7--7-------|-9--9-------|-7--7-------|-0/---------|
E|------------|-7--7-------|-5--5-------|-0/---------|

Outro: (2:22)

   A A A A A A A A   A A A A A A A A   A A A A A A A A   A A A A A A A A
e|-----------------|-----------------|-----------------|-----------------|
B|-----------------|-----------------|-----------------|-----------------|
G|-----------------|-----------------|-----------------|-----------------|
D|-9-9-9-9-9-9-9-9-|-----------------|-----------------|-----------------|
A|-7-7-7-7-7-7-7-7-|-9-9-9-9-9-9-9-9-|-7-7-7-7-7-7-7-7-|-7-7-7-7-7-7-7-7-|
E|-----------------|-7-7-7-7-7-7-7-7-|-5-5-5-5-5-5-5-5-|-5-5-5-5-5-5-5-5-|
   A A A A A A A A   A A A A A A A A   A A A A A A A A   A A A A A A A A
e|-----------------|-----------------|-----------------|-----------------|
B|-----------------|-----------------|-----------------|-----------------|
G|-----------------|-----------------|-----------------|-----------------|
D|-9-9-9-9-9-9-9-9-|-----------------|-----------------|-----------------|
A|-7-7-7-7-7-7-7-7-|-9-9-9-9-9-9-9-9-|-7-7-7-7-7-7-7-7-|-7-7-7-7-7-7-7-7-|
E|-----------------|-7-7-7-7-7-7-7-7-|-5-5-5-5-5-5-5-5-|-5-5-5-5-5-5-5-5-|

   A A A A A A A A   A A A A A A A A   A A A A A A A A   A A A A A A A A
e|-----------------|-----------------|-----------------|-----------------|
B|-----------------|-----------------|-----------------|-----------------|
G|-----------------|-----------------|-----------------|-----------------|
D|-9-9-9-9-9-9-9-9-|-----------------|-----------------|-----------------|
A|-7-7-7-7-7-7-7-7-|-9-9-9-9-9-9-9-9-|-7-7-7-7-7-7-7-7-|-7-7-7-7-7-7-7-7-|
E|-----------------|-7-7-7-7-7-7-7-7-|-5-5-5-5-5-5-5-5-|-5-5-5-5-5-5-5-5-|
   A A A A A A A A   A A A A A A A A   A A A A A A A A   A A A A  A   A  A  A
e|-----------------|-----------------|-----------------|-------------12-12-12-|
B|-----------------|-----------------|-----------------|-------------12-12-12-|
G|-----------------|-----------------|-----------------|----------------------|
D|-9-9-9-9-9-9-9-9-|-----------------|-----------------|----------------------|
A|-7-7-7-7-7-7-7-7-|-9-9-9-9-9-9-9-9-|-7-7-7-7-7-7-7-7-|-7-7-7-7-(7)----------|
E|-----------------|-7-7-7-7-7-7-7-7-|-5-5-5-5-5-5-5-5-|-5-5-5-5-(5)----------|

    A  A  A  A  A  A  A  A    A  A  A  A  A  A  A  A
e|-12-12----------12-12-12-|-12-12----------12-12-12-|
B|-12-12-10----10-12-12-12-|-12-12-10----10-12-12-12-|
G|----------12-------------|----------12-------------|
D|-------------------------|-------------------------|
A|-------------------------|-------------------------|
E|-------------------------|-------------------------|
    A  A  A  A  A  A A  A     V   A V   A  A  A
e|-12-12------------------|------------12-12-12-|
B|-12-12-10----10-12------|---------8--12-12-12-|
G|----------12----12-9----|-------9-------------|
D|---------------------12-|-(12)----------------|
A|------------------------|---------------------|
E|------------------------|---------------------|

    A  A  A  A  A  A  A  A    A  A  A  A  A  A  A  A
e|-12-12----------12-12-12-|-12-12----------12-12-12-|
B|-12-12-10----10-12-12-12-|-12-12-10----10-12-12-12-|
G|----------12-------------|----------12-------------|
D|-------------------------|-------------------------|
A|-------------------------|-------------------------|
E|-------------------------|-------------------------|
    A  A  A  A  A  A A  A     V    A  H    A
e|-12-12------------------|-------------------|
B|-12-12-10----10-12------|-------10--8---(8)-|
G|----------12----12-9----|-------------------|
D|---------------------12-|-(12)--------------|
A|------------------------|-------------------|
E|------------------------|-------------------|

    V   S  S  S  S  S   S  S  S  S   S  S  S
e|-10--12t15p12p10h12-t15p12p10h12-t15p12p10h-|
B|--------------------------------------------|
G|--------------------------------------------|
D|--------------------------------------------|
A|--------------------------------------------|
E|--------------------------------------------|
    S  S  S  S  S   S  S  S  S   S  S  S  S   S  S  S
e|-12t15p12p10h12-t15p12p10h12-t15p12p10h12-t15p12p10h-|
B|-----------------------------------------------------|
G|-----------------------------------------------------|
D|-----------------------------------------------------|
A|-----------------------------------------------------|
E|-----------------------------------------------------|

    S  S  S  S  S  S  S  S  S  S  S  S  S S S S
e|-12t15p12p10h12p10----------10-------10-7-5-7-|
B|-------------------12-10-12----12-10----------|
G|----------------------------------------------|
D|----------------------------------------------|
A|----------------------------------------------|
E|----------------------------------------------|
   S S S S S S S S A A A A   H.  V     G     G
e|-5-7-5-3-0---3-0-3-3-0---|-0------|-----|-----|
B|-----------3-----------3-|--------|-----|-----|
G|-------------------------|--------|-----|-----|
D|-------------------------|--------|-----|-----|
A|-------------------------|-----2--|-(2)-|-(2)-|
E|-------------------------|-----0--|-(0)-|-(0)-|

Hinweise:

Man kann statt Beispiel 1 auch Beispiel 2 spielen.

Beispiel 1:

   V  V  A A V    V  V  A A V    V  V  A A V    V  V  A A V
e|--------------|--------------|--------------|--------------|
B|--------------|--------------|--------------|--------------|
G|--------------|--------------|--------------|--------------|
D|-9--9--x-x-9--|--------------|--------------|--------------|
A|-7--7--7-7-7--|-9--9--x-x-9--|-7--7--x-x-7--|-7--7--x-x-7--|
E|--------------|-7--7--7-7-7--|-5--5--5-5-5--|-5--5--5-5-5--|

Beisiel 2:

   V  V  A A V    V  V  A A V    V  V  A A V    V  V  A A V
e|--------------|--------------|--------------|--------------|
B|--------------|--------------|--------------|--------------|
G|--------------|--------------|--------------|--------------|
D|-9--9--x-x-9--|--------------|--------------|--------------|
A|-7--7--x-x-7--|-9--9--x-x-9--|-7--7--x-x-7--|-7--7--x-x-7--|
E|--------------|-7--7--x-x-7--|-5--5--x-x-5--|-5--5--x-x-5--|


An dieser Stelle solltet ihr die 10 mit dem kleinem Finger halten.

     V    V    H       V    V    H
e|-(10)-(10)-(10)--|-(10)-(10)-(10)--|
B|-----------------|-----------------|
G|-----------------|-----------------|
D|---9----9--------|-----------------|
A|---7----7--------|---9----9--------|
E|-----------------|---7----7--------|


Beachtet auch, dass das zweite Tapping-Solo anders aufgebaut ist als das erste.


Ich wünsche euch viel Spaß und Erfolg bei "Ach, Sie suchen Streit?"!


© Copyright

Notenwerte
---------------
| G - Ganze
| H - Halbe
| V - Viertel
| A - Achtel
| S - Sechzehntel
| . - Punktiert

Legende
----------------
| /  hoch gleiten
| \  runter gleiten
| X  abgedämpfte Note
| h  hammer on
| p  pull off
| t  tapping
| () gehaltene Note
===============================================================================
comments
print report bad tab
I want to post or [tab]
guest
You may want to rate the tab now too:
select rating
Please do not post tabs as comments. Select "correction" instead!