Oops, an error
Loading. Please wait.

Auf Gute Freunde Live Tab

ver1
ver1

Whole song

Interactive

More versions @911Tabs.com
4,900 views 1 this week
no commentswrite comment
1 2 3 4 5
excellent!
x 1
Autoscroll
+/-
esc
set tempo
stop
Contributor
Difficulty
novice
WARNING: You are trying to view
                                    content from Ultimate-Guitar.com
                                    in an unauthorized application,
                                    which is prohibited.

                                    Please use an official Ultimate
                                    Guitar Tabs application for iPhone,
                                    iPad or Android to access legitimate
                                    chords, guitar, bass, and drum tabs
                                    from Ultimate-Guitar.com database.

                                    Type "ultimate guitar tabs" in Apple
                                    App Store's or Android Market's
                                    search to find the application.
.
---->  A U F   G U T E   F R E U N D E

--->         by Böhse Onkelz

-->      E.I.N.S. (1996) / Live 2004

->           tabbed by chriZ



INTRO:
                                                                          4x
e|-----------------|-----------------|-----------------|-----------------|
b|-----------------|-----------------|-----------------|-----------------|
g|-----------------|-----------------|-----------------|-----------------|
D|-----------------|-----------------|-----------------|-----------------|
A|-------5-5-------|---5-5-----------|-------5-5-------|-----5-5---------|
E|-5-6-7-----7-5-6-|-7-----7-5-6-7-7-|-5-6-7-----7-5-6-|-7-7-----7-7-7-7-|
   . . . . . . . .   . . . . . . . .   . . . . . . . .   . . . . . . . .  pm



MELODY:
                                                                          2x
e|-----------------|-----------------|-----------------|-----------------|
b|-----------------|-----------------|-----------------|-----------------|
g|-----------------|-----------------|-----------------|-----------------|
D|-----------------|-----------------|-----------------|-----------------|
A|-------5~--------|---5~------------|-------5~--------|-----5~----------|
E|-5-6-7-----7-5-6-|-7-----7-5-6-7~--|-5-6-7-----7-5-6-|-7~------7~------|




VERSE 1:
                                                                          3x
e|-----------------|-----------------|-----------------|-----------------|
b|-----------------|-----------------|-----------------|-----------------|
g|-----------------|-----------------|-----------------|-----------------|
D|-----------------|-----------------|-7-7-7-7-7-7-7-7-|-----------------|
A|-9-9-9-9-9-9-9-9-|-5-5-5-5-5-5-5-5-|-5-5-5-5-5-5-5-5-|-7-7-7-7-7-6-7-8-|
E|-7-7-7-7-7-7-7-7-|-3-3-3-3-3-3-3-3-|-----------------|-5-5-5-5-5-4-5-6-|
     . . . . . . .   . . . . . . . .     . . . . . . .   . . . .          pm


e|-----------------|-----------------|-----------------|-----------------|
b|-----------------|-----------------|-----------------|-----------------|
g|-----------------|-----------------|-----------------|-----------------|
D|-----------------|-----------------|-7--------7---7--|-----------------|
A|-9-9-9-9-9-9-9-9-|-5-5-5-5-5-5-5-5-|-5--------5---5--|-7---------7--7--|
E|-7-7-7-7-7-7-7-7-|-3-3-3-3-3-3-3-3-|-----------------|-5---------5--5--|
     . . . . . . .   . . . . . . . .                                      pm



CHORUS:
                                                                          4x
e|-----------------|-----------------|-----------------|-----------------|
b|-----------------|-----------------|-----------------|-----------------|
g|-----------------|-----------------|-----------------|-----------------|
D|-----------------|-----------------|-7---7-7-7-7-7---|-----------------|
A|-9---9-9-9-9-9---|-5---5-5-5-5-5---|-5---5-5-5-5-5---|-7---7-7-7-7-7---|
E|-7---7-7-7-7-7---|-3---3-3-3-3-3---|-----------------|-5---5-5-5-5-5---|
       .   .             .   .             .   .             .   .        pm



MELODY:
                                                                          2x
e|-----------------|-----------------|-----------------|-----------------|
b|-----------------|-----------------|-----------------|-----------------|
g|-----------------|-----------------|-----------------|-----------------|
D|-----------------|-----------------|-----------------|-----------------|
A|-------5~--------|---5~------------|-------5~--------|-----5~----------|
E|-5-6-7-----7-5-6-|-7-----7-5-6-7~--|-5-6-7-----7-5-6-|-7~------7~------|




VERSE 2:
                                                                          3x
e|-----------------|-----------------|-----------------|-----------------|
b|-----------------|-----------------|-----------------|-----------------|
g|-----------------|-----------------|-----------------|-----------------|
D|-----------------|-----------------|-7-7-7-7-7-7-7-7-|-----------------|
A|-9-9-9-9-9-9-9-9-|-5-5-5-5-5-5-5-5-|-5-5-5-5-5-5-5-5-|-7-7-7-7-7-6-7-8-|
E|-7-7-7-7-7-7-7-7-|-3-3-3-3-3-3-3-3-|-----------------|-5-5-5-5-5-4-5-6-|
     . . . . . . .   . . . . . . . .     . . . . . . .   . . . .          pm


e|-----------------|-----------------|-----------------|-----------------|
b|-----------------|-----------------|-----------------|-----------------|
g|-----------------|-----------------|-----------------|-----------------|
D|-----------------|-----------------|-7--------7---7--|-----------------|
A|-9-9-9-9-9-9-9-9-|-5-5-5-5-5-5-5-5-|-5--------5---5--|-7---------7--7--|
E|-7-7-7-7-7-7-7-7-|-3-3-3-3-3-3-3-3-|-----------------|-5---------5--5--|
     . . . . . . .   . . . . . . . .                                      pm



CHORUS:
                                                                          4x
e|-----------------|-----------------|-----------------|-----------------|
b|-----------------|-----------------|-----------------|-----------------|
g|-----------------|-----------------|-----------------|-----------------|
D|-----------------|-----------------|-7---7-7-7-7-7---|-----------------|
A|-9---9-9-9-9-9---|-5---5-5-5-5-5---|-5---5-5-5-5-5---|-7---7-7-7-7-7---|
E|-7---7-7-7-7-7---|-3---3-3-3-3-3---|-----------------|-5---5-5-5-5-5---|
       .   .             .   .             .   .             .   .        pm



BRIDGE:

e|-----------------|-----------------|-----------------|-----------------|
b|-----------------|-----------------|-----------------|-----------------|
g|-----------------|-----------------|-----------------|-----------------|
D|-----------------|-----------------|-7---7-7-7-7-7---|-----------------|
A|-5---5-5-5-5-5---|-7---7-7-7-7-7---|-5---5-5-5-5-5---|-9---9-9-9-9-9---|
E|-3---3-3-3-3-3---|-5---5-5-5-5-5---|-----------------|-7---7-7-7-7-7---|
       . . .             . . .             . . .             . . .        pm


e|-----------------|-----------------|-----------------|-----------------|
b|-----------------|-----------------|-----------------|-----------------|
g|-----------------|-----------------|-----------------|-----------------|
D|-----------------|-----------------|-----------------|-----------------|
A|-5---5-5-5-5-5---|-7---7-7-7-7-7---|-9---9-9-9-9-9---|-9---9---9---9-9-|
E|-3---3-3-3-3-3---|-5---5-5-5-5-5---|-7---7-7-7-7-7---|-7---7---7---7-7-|
       . . .             . . .             . . .                          pm


e|-----------------|-----------------|-----------------|-----------------|
b|-----------------|-----------------|-----------------|-----------------|
g|-----------------|-----------------|-----------------|-----------------|
D|-----------------|-----------------|-7---7-7-7-7-7---|-----------------|
A|-5---5-5-5-5-5---|-7---7-7-7-7-7---|-5---5-5-5-5-5---|-9---9-9-9-9-9---|
E|-3---3-3-3-3-3---|-5---5-5-5-5-5---|-----------------|-7---7-7-7-7-7---|
       . . .             . . .             . . .             . . .        pm


e|-----------------|-----------------|-----------------|-----------------|
b|-----------------|-----------------|-----------------|-----------------|
g|-----------------|-----------------|-----------------|-----------------|
D|-----------------|-----------------|-----------------|-----------------|
A|-5---5-5-5-5-5---|-7---7-7-7-7-7---|-9---9-9-9-9-9---|-9---9---9---9-9-|
E|-3---3-3-3-3-3---|-5---5-5-5-5-5---|-7---7-7-7-7-7---|-7---7---7---7-7-|
       . . .             . . .             . . .                          pm



SOLO 1:

e|-----------------|-----------------|-----------------|-----------------|
b|-----------------|-----------------|-----------------|-----------------|
g|-----------------|-----------------|-----------------|-----------------|
D|-----------------|-----------------|-4~--------------|-----------------|
A|---5---4~----4---|---5---4~----4---|-----7--5--7-4~--|-----5---7-5-4~--|
E|-7---------7---7-|-7---------7---7-|-----------------|-----------------|



e|-----------------|-----------------|-----------------|-----------------|
b|-----------------|-----------------|-----------------|-----------------|
g|-----------------|-----------------|-----------------|---------7-------|
D|-----------------|-----------------|-4~----4~--5-7~--|-----7-9---9-7~--|
A|---5---4~----4---|---5---4~----4---|-----7-----------|-----------------|
E|-7---------7---7-|-7---------7---7-|-----------------|-----------------|



e|--7---7------7---|-----------------|------------7-------|--------------|
b|-10b-10b~---10br-|-10p-7-----------|-----------7-7-10br-|-7------------|
g|-----------------|-------9-7-9~----|-7-9b-7-9b----------|---9-7-9~-----|
D|-----------------|-----------------|--------------------|--------------|
A|-----------------|-----------------|--------------------|--------------|
E|-----------------|-----------------|--------------------|--------------|



e|-7p5-5h7p5-5h7p5-5h7p5-5-|-12p10--10h12p10--10h12p10--10h12p10---14-14-|
b|----7-----7-----7-----7--|------12--------12--------12--------12-------|
g|-------------------------|---------------------------------------------|
D|-------------------------|---------------------------------------------|
A|-------------------------|---------------------------------------------|
E|-------------------------|---------------------------------------------|



e|-14--12-12-12--10-10-10--9-9-9--10-|-12~---------|
b|-----------------------------------|-------------|
g|-----------------------------------|-------------|
D|-----------------------------------|-------------|
A|-----------------------------------|-------------|
E|-----------------------------------|-------------|




VERSE 3:
                                                                          3x
e|-----------------|-----------------|-----------------|-----------------|
b|-----------------|-----------------|-----------------|-----------------|
g|-----------------|-----------------|-----------------|-----------------|
D|-----------------|-----------------|-7-7-7-7-7-7-7-7-|-----------------|
A|-9-9-9-9-9-9-9-9-|-5-5-5-5-5-5-5-5-|-5-5-5-5-5-5-5-5-|-7-7-7-7-7-6-7-8-|
E|-7-7-7-7-7-7-7-7-|-3-3-3-3-3-3-3-3-|-----------------|-5-5-5-5-5-4-5-6-|
     . . . . . . .   . . . . . . . .     . . . . . . .   . . . .          pm


e|-----------------|-----------------|-----------------|-----------------|
b|-----------------|-----------------|-----------------|-----------------|
g|-----------------|-----------------|-----------------|-----------------|
D|-----------------|-----------------|-7--------7---7--|-----------------|
A|-9-9-9-9-9-9-9-9-|-5-5-5-5-5-5-5-5-|-5--------5---5--|-7---------7--7--|
E|-7-7-7-7-7-7-7-7-|-3-3-3-3-3-3-3-3-|-----------------|-5---------5--5--|
     . . . . . . .   . . . . . . . .                                      pm



CHORUS:
                                                                          4x
e|-----------------|-----------------|-----------------|-----------------|
b|-----------------|-----------------|-----------------|-----------------|
g|-----------------|-----------------|-----------------|-----------------|
D|-----------------|-----------------|-7---7-7-7-7-7---|-----------------|
A|-9---9-9-9-9-9---|-5---5-5-5-5-5---|-5---5-5-5-5-5---|-7---7-7-7-7-7---|
E|-7---7-7-7-7-7---|-3---3-3-3-3-3---|-----------------|-5---5-5-5-5-5---|
       .   .             .   .             .   .             .   .        pm



BRIDGE:
                                                                          2x
e|-----------------|-----------------|-----------------|-----------------|
b|-7---------------|-----------------|-7---------------|-----------------|
g|-9b~-9p-7--------|---7~------------|-7-7h-9p-7-------|----7~-----------|
D|----------9-7-9~-|-----------------|-----------9-7-9-|-9---------------|
A|-----------------|-----------------|-----------------|-----------------|
E|-----------------|-----------------|-----------------|-----------------|




SOLO 2:

e|--7-----7-----|--7-------7-|-10p7--7------------------|----------------|
b|-10b~--10br~--|-10b~--10---|-----10-10p7-7------------|----------------|
g|--------------|------------|------------9-9p7-7-------|----------------|
D|--------------|------------|-----------------9-9p7----|----------------|
A|--------------|------------|----------------------9p7-|-5~-------------|
E|--------------|------------|--------------------------|----------5-6-7-|



e|------------------|-----------------------|------------|---------------|
b|------------------|------10p7-7-----------|-7--7~----7-|---------------|
g|-----------9br--7-|-9br------9-9p7-7------|-7--7~----7-|-9-7-----------|
D|-------7-9--------|---------------9-9p7-9-|------------|-----9-7-9~----|
A|-5-7-9------------|-----------------------|------------|---------------|
E|------------------|-----------------------|------------|---------------|



e|---------7-7~--7--|--7----------------------|--------------|-------------|
b|---------7-7~-10b-|-10b-10p7-7--------------|--------------|-------------|
g|-----7-9----------|---------9-9p7-7---------|--------------|-9---9br-7---|
D|-7h9--------------|--------------9-9p7------|---------79p7-|---7-------9~|
A|------------------|-------------------9p7p5-|---5-7-9------|-------------|
E|------------------|-------------------------|-7~-----------|-------------|



e|-----------------|-----------------|-----------------|-----7-----7------|
b|-7~--7-7~--7-7~--|-----------------|-7~--7-7~--7-7~--|-10b---10b---10b~-|
g|-7~--7-7~--7-7~--|-9br-7h9p7----7~-|-7~--7-7~--7-7~--|------------------|
D|-----------------|-----------9~----|-----------------|------------------|
A|-----------------|-----------------|-----------------|------------------|
E|-----------------|-----------------|-----------------|------------------|



e|--------------|---------------|--7-10p7--7------------|-----------------|
b|-7~-7-7~-7-7~-|---------------|-10b----10-10p7-7------|-------7---------|
g|-7~-7-7~-7-7~-|-9br-7h9p7---7~|---------------9-9p7-7-|----9--7-9br-7---|
D|--------------|-----------9~--|--------------------9--|-9p7-7---------9~|
A|--------------|---------------|-----------------------|-----------------|
E|--------------|---------------|-----------------------|-----------------|




CHORUS:
                                                                          8x
e|-----------------|-----------------|-----------------|-----------------|
b|-----------------|-----------------|-----------------|-----------------|
g|-----------------|-----------------|-----------------|-----------------|
D|-----------------|-----------------|-7---7-7-7-7-7---|-----------------|
A|-9---9-9-9-9-9---|-5---5-5-5-5-5---|-5---5-5-5-5-5---|-7---7-7-7-7-7---|
E|-7---7-7-7-7-7---|-3---3-3-3-3-3---|-----------------|-5---5-5-5-5-5---|
       .   .             .   .             .   .             .   .        pm



OUTRO:
                                                                          2x
e|-----------------|-----------------|-----------------|-----------------|
b|-----------------|-----------------|-----------------|-----------------|
g|-----------------|-----------------|-----------------|-----------------|
D|-----------------|-----------------|-----------------|-----------------|
A|-------5~--------|---5~------------|-------5~--------|-----5~----------|
E|-5-6-7-----7-5-6-|-7-----7-5-6-7~--|-5-6-7-----7-5-6-|-7~------7~------|

comments
We did not receive enough feedback on this tab! Please rate:
print report bad tab
1 2 3 4 5
I want to post or [tab]
guest
You may want to rate the tab now too:
select rating
Please do not post tabs as comments. Select "correction" instead!