Oops, an error
Loading. Please wait.

Danket Dem Herrn Tab

ver1
ver1

Whole song

Interactive

More versions @911Tabs.com
6,250 views 3 this week
no commentswrite comment
1 2 3 4 5
excellent!
x 1
Autoscroll
+/-
esc
set tempo
stop
WARNING: You are trying to view
                                    content from Ultimate-Guitar.com
                                    in an unauthorized application,
                                    which is prohibited.

                                    Please use an official Ultimate
                                    Guitar Tabs application for iPhone,
                                    iPad or Android to access legitimate
                                    chords, guitar, bass, and drum tabs
                                    from Ultimate-Guitar.com database.

                                    Type "ultimate guitar tabs" in Apple
                                    App Store's or Android Market's
                                    search to find the application.
Intro: 2x

|-----------------------------------------------|
|-----------------------------------------------|
|-----------------------------------------------|
|----------9-------9-------9-------9-------9-9--|
|-----------------------------------------------|
|-----7-7-----7-7-----7-7-----7-7-----7-7-------|

|-----------------------------------------------|
|-----------------------------------------------|
|-----------------------------------------------|
|----------9-------9-------9-------9-------9-9--|
|-----------------------------------------------|
|-----6-6-----6-6-----6-6-----6-6-----6-6-------|

|-----------------------------------------------|
|-----------------------------------------------|
|-----------------------------------------------|
|----------9-------9-------9-------9-------9-9--|
|-----------------------------------------------|
|-----5-5-----5-5-----5-5-----5-5-----5-5-------|

|-----------------------------------------------|
|-----------------------------------------------|
|-----------------------------------------------|
|----------9-------9-------9-------9-------9-9--|
|-----------------------------------------------|
|-----4-4-----4-4-----4-4-----4-4-----4-4-------|

Verse:

|-----------------------------------------------|
|-----------------------------------------------|
|-----------------------------------------------|
|----9------(9)---------------------------------|
|----9------(9)------9-----(9)------------------|
|----7------(7)------6-----(6)------------------|

|-----------------------------------------------|
|-----------------------------------------------|
|----7------(7)---------------------------------|
|----7------(7)------7-----(7)------------------|
|----5------(5)------4-----(4)------------------|


|-----------------------------------------------|
|-----------------------------------------------|
|-----------------------------------------------|
|----------9-------9-------9-------9-------9-9--|
|-----------------------------------------------|
|-----7-7-----7-7-----7-7-----7-7-----7-7-------|

|-----------------------------------------------|
|-----------------------------------------------|
|-----------------------------------------------|
|----------9-------9-------9-------9-------9-9--|
|-----------------------------------------------|
|-----6-6-----6-6-----6-6-----6-6-----6-6-------|

|-----------------------------------------------|
|-----------------------------------------------|
|-----------------------------------------------|
|----------9-------9-------9-------9-------9-9--|
|-----------------------------------------------|
|-----5-5-----5-5-----5-5-----5-5-----5-5-------|

|-----------------------------------------------|
|-----------------------------------------------|
|-----------------------------------------------|
|----------9-------9-------9-------9-------9-9--|
|-----------------------------------------------|
|-----4-4-----4-4-----4-4-----4-4-----4-4-------|

Chorus :
    E5              F5
|-----------------------------------------------|
|-----------------------------------------------|
|-----------------------------------------------|
|----2-----(2)------4------(4)------------------|
|----2-----(2)------4------(4)------------------|
|----0-----(0)------2------(2)------------------|

     B5                        G5
|------------------------------------------------------------|
|------------------------------------------------------------|
|----4--4--4--4-4---4-4-4--4---------------------------------|
|----4--4--4--4-4---4-4-4--4---6--6--6--6-6---6-6-6--6-6-----|
|----2--2--2--2-2---2-2-2--2---6--6--6--6-6---6-6-6--6-6-----|
|------------------------------4--4--4--4-4---4-4-4--4-4-----|

    E5              F5
|-----------------------------------------------|
|-----------------------------------------------|
|-----------------------------------------------|
|----2-----(2)------4------(4)------------------|
|----2-----(2)------4------(4)------------------|
|----0-----(0)------2------(2)------------------|

     B5
|------------------------------------------------------------|
|------------------------------------------------------------|
|----4--4--4--4-4---4-4-4--4--4---4--4--4--4-4---4-4-4--4--4-|
|----4--4--4--4-4---4-4-4--4--4---4--4--4--4-4---4-4-4--4--4-|
|----2--2--2--2-2---2-2-2--2--2---2--2--2--2-2---2-2-2--2--2-|
|------------------------------------------------------------|

Interlude:

|-----------------------------------------------|
|-----------------------------------------------|
|-----------------------------------------------|
|----------9-------9-------9-------9-------9-9--|
|-----------------------------------------------|
|-----7-7-----7-7-----7-7-----7-7-----7-7-------|

|-----------------------------------------------|
|-----------------------------------------------|
|-----------------------------------------------|
|----------9-------9-------9-------9-------9-9--|
|-----------------------------------------------|
|-----6-6-----6-6-----6-6-----6-6-----6-6-------|

|-----------------------------------------------|
|-----------------------------------------------|
|-----------------------------------------------|
|----------9-------9-------9-------9-------9-9--|
|-----------------------------------------------|
|-----5-5-----5-5-----5-5-----5-5-----5-5-------|

|-----------------------------------------------|
|-----------------------------------------------|
|-----------------------------------------------|
|----------9-------9-------9-------9-------9-9--|
|-----------------------------------------------|
|-----4-4-----4-4-----4-4-----4-4-----4-4-------|

Solo:
    E5     F5      B5     G5
|-----------------------------------------------|
|-----------------------------------------------|
|------------------4----------------------------|
|----2------4------4-------6--------------------|
|----2------4------2-------6--------------------|
|----0------2--------------4--------------------|

|-----------------------------------------------|
|-----------------------------------------------|
|------------------------6---8---6--------------|
|----6---8---9---8---9---------------9---6------|
|-----------------------------------------------|
|-----------------------------------------------|

    E5     F5      B5     B5
|----------------------------------------------|
|----------------------------------------------|
|------------------4------(4)------------------|
|----2------4------4------(4)------------------|
|----2------4------2------(2)------------------|
|----0------2----------------------------------|

|-------------------------------------------------------|
|-------------------------------------------------7-----|
|------------------------6---8------(8)---9---9---------|
|----6---8---9---8---9----------------------------------|
|-------------------------------------------------------|
|-------------------------------------------------------|

    E5     F5      B5     G5
|-----------------------------------------------|
|-----------------------------------------------|
|------------------4----------------------------|
|----2------4------4-------6--------------------|
|----2------4------2-------6--------------------|
|----0------2--------------4--------------------|

|-7---------------------------------------------|
|---7--10--7-----7-------------------------7----|
|-------------9-----9--7---9---9---9----9-------|
|-----------------------------------------------|
|-----------------------------------------------|
|-----------------------------------------------|

|-7---------------------------------------------|
|---7--10--7-----7------------------------------|
|-------------9-----9--7---9--(9)--7--9--7------|
|--------------------------------------------9--|
|-----------------------------------------------|
|-----------------------------------------------|

    E5     F5      B5     B5
|----------------------------------------------|
|----------------------------------------------|
|------------------4------(4)------------------|
|----2------4------4------(4)------------------|
|----2------4------2------(2)------------------|
|----0------2----------------------------------|

|-----------------------------------------------|
|-----------------------------------------------|
|------------------------------------------7-9--|
|--7h9p7------------------------------7-9-------|
|----------9p8p7---------------7h8h9------------|
|-----------------10--7---7-10------------------|

|----------------------------7---------7--------|
|--10-(10)-10-(10)-10-(10)-----10-(10)---10-(10)|
|-----------------------------------------------|
|-----------------------------------------------|
|-----------------------------------------------|
|-----------------------------------------------|

Chorus:-

End :

    E5              F5
|-----------------------------------------------|
|-----------------------------------------------|
|-----------------------------------------------|
|----2-----(2)------4------(4)------------------|
|----2-----(2)------4------(4)------------------|
|----0-----(0)------2------(2)------------------|

     B5                        G5
|------------------------------------------------------------|
|------------------------------------------------------------|
|----4--4--4--4-4---4-4-4--4---------------------------------|
|----4--4--4--4-4---4-4-4--4---6--6--6--6-6---6-6-6--6-6-----|
|----2--2--2--2-2---2-2-2--2---6--6--6--6-6---6-6-6--6-6-----|
|------------------------------4--4--4--4-4---4-4-4--4-4-----|

    E5              F5
|-----------------------------------------------|
|-----------------------------------------------|
|-----------------------------------------------|
|----2-----(2)------4------(4)------------------|
|----2-----(2)------4------(4)------------------|
|----0-----(0)------2------(2)------------------|

     B5         F/B        G5         F5
|------------------------------------------------------------|
|------------------------------------------------------------|
|----4----4--------------------------------------------------|
|----4----4-----4----4-----6----6-----4----4-----------------|
|----2----2-----1----1-----6----6-----4----4-----------------|
|--------------------------4----4-----2----2-----------------|

|-----------------------------------------------|
|-----------------------------------------------|
|-----------------------------------------------|
|----2---------2---------4----------------------|
|----2---------2---------4----------------------|
|----0--------(0)--------2----------------------|

tabbed by Chrischy
comments
We did not receive enough feedback on this tab! Please rate:
print report bad tab
1 2 3 4 5
I want to post or [tab]
guest
You may want to rate the tab now too:
select rating
Please do not post tabs as comments. Select "correction" instead!