Oops, an error
Loading. Please wait.

Lamplight Tab

ver2
ver2

Intro

Whole song

More versions @911Tabs.com
4,835 views 27 this week
no commentswrite comment
1 2 3 4 5
excellent!
x 4
Autoscroll
+/-
esc
set tempo
stop
Contributor
Difficulty
intermediate
NEW! There's an official Ultimate Guitar app which is ideal
for learning songs when you're away from computer. Get the app
WARNING: You are trying to view
                                    content from Ultimate-Guitar.com
                                    in an unauthorized application,
                                    which is prohibited.

                                    Please use an official Ultimate
                                    Guitar Tabs application for iPhone,
                                    iPad or Android to access legitimate
                                    chords, guitar, bass, and drum tabs
                                    from Ultimate-Guitar.com database.

                                    Type "ultimate guitar tabs" in Apple
                                    App Store's or Android Market's
                                    search to find the application.
Band: Bombay Bicycle Club
Album: I Had The Blues But I Shook Them Loose
Track: #2 - Lamplight

  Intro - Guitar 1 (4x)
e|------------------------------------------------------------------------|
B|------------------------------------------------------------------------|
G|-----11----11-11-----11----111111-----11----11--11-----11---------------|
D|------x-----x--x------x-----x-x-x------x-----x---x------x--------9------|
A|-----11----11-11-----11----111111-----11----11--11-----11---9/11---11-9~|
E|-0~0~---00---0---0~0~---00--0-0-0-9~9~---99---9----9~9----9-------------|
 |Guitar 2 (2x Starting On The Third Time)                                |
e|------------------------------------------------------------------------|
B|------------------------------------------------------------------------|
G|-11b-9-11b-9-9-11-9---------------11b-9-11b-9-9-11-9--------------------|
D|--------------------9~~~~~~~~~~~~~--------------------------------------|
A|-----------------------------------------------------11~~~~~~~~~~~~~~~~~|
E|------------------------------------------------------------------------|

  Verse (same as intro without guitar 2)

  Chorus - Guitar 1 (2x)
e|------------------------------------------------------|
B|-----14-14-----12-12-----9-9-----7-7------------------|
G|-----13-13-----11-11-----9-9-----6-6------------------|
D|-----11-11------9--9-----6-6-----4-4------------------|
A|-0~0~------0~0~------0~0~----0~0~----11~11-11-11~11-9-|
E|--------------------------------------0~-0--0--0~-0-0-|
 |Guitar 2
e|-
B|--------14-14-------12-12--------9--9------------------------------|
G|--------13-13-------11-11--------9--9-------11-11------------------|
D|-11~11~-11-11-11~11~11-11-11~11~11-11-11~11~11-11------------------|
A|--0~-0~--------0~-0~-------0~-0~-------0~-0~------11~11-11-11~11-9-|
E|---------------------------------------------------0~-0--0--0~-0-0-|

  Intro - Guitar 1 (2x)
e|-
B|-
G|-
D|- SAME AS FIRST TIME
A|-
E|-
 |Guitar 2
e|---------------------------------------------------------------|
B|---------------------------------------------------------------|
G|-11b-9-11b-9-9-11-9---11b-9-11b-9-9-11-9-----------------------|
D|--------------------9~-----------------------------------------|
A|-----------------------------------------11~\9b-7-9b-7-7-9-7---|
E|-------------------------------------------------------------7~|
 |
e|---------------------|
B|------------------12~| USE TREMELO BAR HOLDING LAST TWO NOTES
G|-11b-9-11b-9-9/13~~~~|
D|---------------------|
A|---------------------|
E|---------------------|

  Verse
  Chorus (JUST BASS FIRST TWO TIMES ONLY)
  Post-Chorus (STRUM CHORUS CHORDS)

  Bridge - Guitar 1 (8x)
e|---------------------------------------------------------|
B|---------------------------------------------------------|
G|--7--7-7--7-7-7--7-7--7-7-7--7-7--7-7-7--7-7-11\-6~/9~\4~|
D|--x--x-x--x-x-x--x-x--x-x-x--x-x--x-x-x--x-x--x\-x~/x~\x~|
A|-11~1111-111111~1111-111111~1111-111111~1111-11\-7~/9~\4~|
E|--0~-0-0--0-0-0~-0-0--0-0-0~-0-0--0-0-0~-0-0--9~\4~/7~\2~|

  Chorus(HALF TIME)

  End - Guitars 1&2
e|------------------|
B|------------------|
G|---------------11~|
D|----------------x~|
A|-4~0-2~0-7~----11~|
E|-----------0-2~-0~|

Thats it. Im sure its 100% correct. Leave a comment and rate the tab. Follow me on 
YouTube, Twitter, Tumblr, Instagram and Kik me all at HRchoni.
comments
print report bad tab
I want to post or [tab]
guest
You may want to rate the tab now too:
select rating
Please do not post tabs as comments. Select "correction" instead!