Oops, an error
Loading. Please wait.

Skinny Love Tab

ver3
ver3
More versions @911Tabs.com
721,978 views 837 this week
19 commentsread comments
1 2 3 4 5
excellent!
x 129
Autoscroll
+/-
esc
set tempo
stop
WARNING: You are trying to view
                                    content from Ultimate-Guitar.com
                                    in an unauthorized application,
                                    which is prohibited.

                                    Please use an official Ultimate
                                    Guitar Tabs application for iPhone,
                                    iPad or Android to access legitimate
                                    chords, guitar, bass, and drum tabs
                                    from Ultimate-Guitar.com database.

                                    Type "ultimate guitar tabs" in Apple
                                    App Store's or Android Market's
                                    search to find the application.
-------------------------------------------------------------------------------
			                               SKINNY LOVE - Bon Iver
-------------------------------------------------------------------------------

This is tabbed for standard tuning, only a capo is needed. Based on the live versions.

CAPO 5. [Though leave high E open/"un-capoed"] i.e.

e|-0-|
B|-5-|
G|-5-|
D|-5-|
A|-5-|
E|-5-|

-------------------------------------------------------------------------------
			             INTRO
-------------------------------------------------------------------------------
Tab related to Capo. Strumming not indicated.

Be free when playing the little riffs, dont be afraid htting the open strings it adds to 
sound.

e|-0-0-0-------------------0-0-0-----------------0-0-0--0-0----0-0-0-|
e|-0-0-0-------------------0-0-0--3-5-3----------0-0-0--1-0----0-0-0-|
C|-0-0-0--2-4-2---2-4-2----0-0-0-------4-2-4-2---0-0-0--0-0-/2-0-0-0-|
G|-2-5-0--------5-------5--2-5-0---------------5-2-5-0-------0-2-5-0-|
D|-2-2-5-------------------2-2-5-----------------2-2-5-------0-2-2-5-|
A|-0-3-3-------------------0-3-3-----------------0-3-3------/2-0-3-3-|

-------------------------------------------------------------------------------
			             VERSE
-------------------------------------------------------------------------------
Chords used:

e|-0-|  |-0-|  |-0-|  |-0-|
e|-0-|  |-0-|  |-0-|  |-0-|
C|-0-|  |-0-|  |-0-|  |-2-|
G|-2-|  |-5-|  |-0-|  |-0-|
D|-2-|  |-2-|  |-5-|  |-0-|
A|-0-|  |-3-|  |-3-|  |-2-|
  Am      C     C/G    D6

Am             C                  C/G
Come on skinny love just last the year
Am             C                  C/G
Pour a little salt we were never here
        Am          C       C/G
My, my, my, my, my, my, my, my
               D6                        Am      C
Staring at the sink of blood and crushed veneer


e|--------------|                 |--------------|
e|--------------|  Bass cant      |--------------|
C|--------------| Go low enough.  |--7p4---------|
G|--------------| So alternative: |------7p5-5-0-|
D|--5p2---------|                 |--------------|
A|------5p3-3-0-|                 |--------------|

Am        C                C/G
I tell my love to wreck it all
Am              C                C/G
Cut out all the ropes and let me fall
        Am          C       C/G
My, my, my, my, my, my, my, my
             D6                  Am   C
Right in the moment this order's tall

-------------------------------------------------------------------------------
			             CHORUS
-------------------------------------------------------------------------------
Chords used:

e|---|  |---|  |-0-|    |(3)|
e|---|  |---|  |-0-|    |-1-|
C|-0-|  |-0-|  |-0-|    |-0-|
G|-5-|  |-4-|  |-2-| OR |-2-| Down to preference.
D|-0-|  |-0-|  |-3-|    |-3-|
A|-3-|  |-2-|  |-0-|    |-0-|
   C.    Cmaj7  Fmaj7      F

  C.
I told you to be patient
  Cmaj7          F
I told you to be fine
  C.
I told you to be balanced
  Cmaj7          F
I told you to be kind
       C.
In the morning I'll be with you
            Cmaj7           F
But it will be a different "kind"
        C
I'll be holding all the tickets
              Cmaj7          F
And you'll be owning all the fines
comments
print report bad tab
19 comments total. Showing first comments.
+4 reply
Tom Cahill wrote on June 13 2008, 01:00 am

awesomely perfect. thankyou very ****ing much dude.

you're a champion.

+4 reply
~Coxy~ wrote on June 28 2008, 07:27 am

Excellent, excellent tab. Far & away the best I've seen of this in standard. Sounds pretty much perfect. Much easier than risking string breaking to do it in the proper tuning. Cheers

+3 reply
P0undc4k3 wrote on August 9 2008, 10:08 am

Incredible tab. ***** all the way. Please, please whoever made this tab: please tab out Flume because all of the Flume tabs on the website are off.

I want to post or [tab]
guest
You may want to rate the tab now too:
select rating
Please do not post tabs as comments. Select "correction" instead!