Oops, an error
Loading. Please wait.

Livin In A Prayer Tab

4,019 views 6 this week
no commentswrite comment
1 2 3 4 5
please rate
Autoscroll
+/-
esc
set tempo
stop
Contributor
Difficulty
novice
WARNING: You are trying to view
                                    content from Ultimate-Guitar.com
                                    in an unauthorized application,
                                    which is prohibited.

                                    Please use an official Ultimate
                                    Guitar Tabs application for iPhone,
                                    iPad or Android to access legitimate
                                    chords, guitar, bass, and drum tabs
                                    from Ultimate-Guitar.com database.

                                    Type "ultimate guitar tabs" in Apple
                                    App Store's or Android Market's
                                    search to find the application.
Em Key

E|--------------------------------|--------------------------------|
B|--------------------------------|--------------------------------|
G|--------------------------------|--------------------------------|
D|--------------------------------|--------------------------------|
A|---- 7------ 5-------------- 5--|---- 7------ 5-------------- 5--|
E| 0------ 0------ 0-- 0-- 7------| 0------ 0------ 0-- 0-- 7------|

E|--------------------------------|--------------------------------|
B| 5---------- 5---------- 5------| 7---------- 7-------- 7------ 8|
G| 5---------- 5---------- 5------| 7---------------------- 7---- 0|
D| 5---------- 5---------- 5------| 7---------- 7-------- 7------ 0|
A|--------------------------------|--------------------------------|
E| 0-- 0-- 0-- 0-- 0-- 0-- 0-- 0--| 0-- 0-- 0-- 0-- 0-- 0-- 0-- 0 0|
E|--------------------------------|--------------------------------|
B|--------------------------------| 0------------------------------|
G|--------------------------------| 0------------------------------|
D|--------------------------------| 0------------------------------|
A|---- 7---- 5---------------- 5--|---- 7------ 5-------------- 5--|
E|-------- 0------ 0-- 0-- 7------| 0------ 0------ 0-- 0-- 7------|

E| 3-- 3-- 2-- 2-- 0------ 0-- 0--|--------------------------------|
B| 0-- 0-- 0-- 0-- 0-- 3-- 0-- 0--|--------------------------------|
G| 0-- 0-- 0-- 0------ 0-- 0-- 0--|--------------------------------|
D|-------------------- 0----------|--------------------------------|
A|--------------------------------|---- 7------ 5-------------- 5--|
E| 0-- 0-- 0-- 0-- 0-- 0-- 0-- 0--| 0------ 0------ 0-- 0-- 7------|

E| 3-- 3-- 2-- 2-- 0------ 0-- 0--|--------------------------------|
B| 0-- 0-- 0-- 0-- 0-- 3-- 0-- 0--|--------------------------------|
G| 0-- 0-- 0-- 0------ 0-- 0-- 0--|--------------------------------|
D|-------------------- 0----------|--------------------------------|
A|--------------------------------|---- 7------ 5-------------- 5--|
E| 0-- 0-- 0-- 0-- 0-- 0-- 0-- 0--| 0------ 0------ 0-- 0-- 7------|

E| 3-- 3-- 2-- 0-- 0---------- 3--| 3-- 2------ 0-- 0--------------|
B| 0-- 0-- 0-- 0-- 0---------- 0--| 0-- 0------ 0-- 0-- 0----------|
G| 0-- 0-- 0-- 0-- 0---------- 0--| 0-- 0------ 0-- 0-- 0------ 2--|
D|--------------------------------|-------------------- 0------ 2--|
A|--------------------------------|--------------------------------|
E| 0-- 0-- 0-- 0-- 0-- 0-- 0-- 0--| 0------ 0------ 0------ 0------|

E|--------------------------------|--------------------------------|
B|--------------------------------|-------------------- 0----------|
G|---- 0--------------------------| 2-------------------------- 2--|
D|---- 2--------------------------| 4------------------------------|
A|--------------------------------| 5-- 5-- 5-- 5-- 5-- 5-- 5-- 5--|
E| 0-- 0-- 0-- 0-- 0-- 0-- 0-- 0--|--------------------------------|

E|--------------------------------|--------------------------------|
B|-- 0----------------------------| 0------------------------------|
G|-- 0----------------------------| 0------------------------------|
D|-- 0----------------------------| 0------------------------------|
A|-- 7-------- 5------------ 5----|---- 7------ 5-------------- 5--|
E| 0------ 0------ 0-- 0-- 7------| 0------ 0------ 0-- 0-- 7------|


E| 3-- 3-- 2-- 2-- 0------ 0-- 0--|--------------------------------|
B| 0-- 0-- 0-- 0-- 0-- 3-- 0-- 0--|--------------------------------|
G| 0-- 0-- 0-- 0------ 0-- 0-- 0--|--------------------------------|
D|-------------------- 0----------|--------------------------------|
A|--------------------------------|---- 7------ 5-------------- 5--|
E| 0-- 0-- 0-- 0-- 0-- 0-- 0-- 0--| 0------ 0------ 0-- 0-- 7------|

E| 3-- 3-- 2-- 2-- 0------ 0-- 0--|--------------------------------|
B| 0-- 0-- 0-- 0-- 0-- 3-- 0-- 0--|--------------------------------|
G| 0-- 0-- 0-- 0------ 0-- 0-- 0--|--------------------------------|
D|-------------------- 0----------|--------------------------------|
A|--------------------------------|---- 7------ 5-------------- 5--|
E| 0-- 0-- 0-- 0-- 0-- 0-- 0-- 0--| 0------ 0------ 0-- 0-- 7------|

E| 3-- 3-- 2-- 0-- 0---------- 3--| 3-- 2------ 0-- 0--------------|
B| 0-- 0-- 0-- 0-- 0---------- 0--| 0-- 0------ 0-- 0-- 0----------|
G| 0-- 0-- 0-- 0-- 0---------- 0--| 0-- 0------ 0-- 0-- 0------ 2--|
D|--------------------------------|-------------------- 0------ 2--|
A|--------------------------------|--------------------------------|
E| 0-- 0-- 0-- 0-- 0-- 0-- 0-- 0--| 0------ 0------ 0------ 0------|

E|--------------------------------|--------------------------------|
B|--------------------------------|-------------------- 0----------|
G|---- 0--------------------------| 2-------------------------- 2--|
D|---- 2--------------------------| 4------------------------------|
A|--------------------------------| 5-- 5-- 5-- 5-- 5-- 5-- 5-- 5--|
E| 0-- 0-- 0-- 0-- 0-- 0-- 0-- 0--|--------------------------------|

E|--------------------------------|------------------------------ 0|
B|-- 0----------------------------| 0------------------------------|
G|-- 0----------------------------| 0-------------------------- 7--|
D|-- 0----------------------------| 0------------------ 9-- 9------|
A|-- 7-------- 5------------ 5----|---- 7------ 5-------------- 5--|
E| 0------ 0------ 0-- 0-- 7------| 0------ 0------ 0-- 0-- 7------|

E|--------------------------------|-------- 0------ 0--------------|
B| 1---------- 3-------------- 3--| 3-------------- 0---------- 0--|
G| 0---------- 0---------- 0------| 0-------------- 0------ 0------|
D|---- 2------ 4------ 4----------|---- 4------ 4------ 2----------|
A| 3---------- 5------------------| 5------------------------------|
E|--------------------------------|---------------- 0--------------|

E|---- 0--------------------------|-------- 0------ 0--------------|
B| 1-- 1------ 3------ 3-- 3-- 3--| 3-------------- 0---------- 0--|
G| 0-- 0------ 0------ 0-- 0-- 0--| 0-------------- 0------ 0------|
D|------------ 4------ 4-- 4-- 4--|---- 4------ 4------ 2----------|
A| 3---------- 5------------------| 5------------------------------|
E|--------------------------------|---------------- 0--------------|

E|---- 0--------------------------|-------- 0----------------------|
B| 1-- 1------ 3------ 3-- 3-- 3--| 3-------------- 0--------------|
G| 0-- 0------ 0------ 0-- 0-- 0--| 0-------------- 0------ 2-- 0--|
D|------------ 4------ 4-- 4-- 4--|---- 4------ 0------ 2----------|
A| 3---------- 5------------------| 5------------------------------|
E|--------------------------------|---------------- 0--------------|


E|---------------------------- 3--|--------------------------------|
B|--------------------------------| 8---- 7---- 5-- 5--------------|
G| 2-- 0--------------------------| 7---- 7---- 7-- 7------ 7------|
D| 2-- 2--------------------------| 7---- 7---- 7-- 7------ 7------|
A| 3------ 0-- 3---------- 0-- 3--| 5---- 5---- 5-- 5------ 5------|
E|---- 3-------------- 3----------|--------------------------------|

E| 3---------- 3-------------- 3--|------------------------------ 7|
B| 0---------- 1------------------| 8---- 7-------- 5------------ 8|
G| 0---------- 0------------------| 7---- 7-------- 7---- 7------ 7|
D|---------- 2--------------------| 7------ 7------ 7------ 7------|
A|------------ 3------ 2-- 3-- 4--| 5-- 5-- 5-- 5-- 5-- 5-- 5-- 510|
E| 0-- 2-- 3----------------------|--------------------------------|

E|------------ 8------------ 8----|-- 8---- 7-------------- 5------|
B|------------ 8------------------|-- 7---- 7-- 8-- 8------ 7------|
G|------------ 9------------------|------------ 8-- 7--------------|
D|--------------------------------|--------------------------------|
A|------------------------------ 5|---- 5-- 5-- 5-- 5-- 5-- 5-- 5--|
E|--10-- 7---- 8------ 7-- 8 9----|--------------------------------|

E| 3-- 5---- 3-------------- 3----|------------------------------ 7|
B| 0---------- 1------------------| 8---- 7------ 5-------------- 8|
G| 0---------- 0------------------| 7---- 7------ 7------ 7------ 7|
D|--------------------------------| 7---- 7------ 7------ 7--------|
A|------------ 3---- 2-- 3-- 4----| 5-- 5-- 5-- 5 5---- 5 5-- 5--10|
E| 0-- 2-- 3----------------------|--------------------------------|

E|------------ 8------------ 8----|-- 8---- 7-------------- 5------|
B|------------ 8------------------|-- 7---- 7-- 8-- 8------ 7------|
G|------------ 9------------------|------------ 8-- 7--------------|
D|--------------------------------|--------------------------------|
A|------------------------------ 5|---- 5-- 5-- 5-- 5-- 5-- 5-- 5--|
E|--10-- 7---- 8------ 7-- 8 9----|--------------------------------|

E| 8---- 8---- 8------ 8-- 8------|--------------------------------|
B| 8------ 8-- 8------ 8-- 8------|--------------------------------|
G| 9------ 9-- 9------ 9-- 9------|--------------------------------|
D|------10------------------------|--------------------------------|
A|--------------------------------|--------------------------------|
E| 8---------- 8---------- 8------|--------------------------------|

E|--------------------------------|--------------------------------|
B|--------------------------------|--------------------------------|
G|--------------------------------|--------------------------------|
D|--------------------------------|--------------------------------|
A|---- 7------ 5-------------- 5--|---- 7------ 5-------------- 5--|
E| 0------ 0------ 0-- 0-- 7------| 0------ 0------ 0-- 0-- 7------|

E|--------------------------------|--------------------------------|
B| 5---------- 5---------- 5------| 7---------- 7-------- 7------ 8|
G| 5---------- 5---------- 5------| 7---------------------- 7---- 0|
D| 5---------- 5---------- 5------| 7---------- 7-------- 7------ 0|
A|--------------------------------|--------------------------------|
E| 0-- 0-- 0-- 0-- 0-- 0-- 0-- 0--| 0-- 0-- 0-- 0-- 0-- 0-- 0-- 0 0|


E|--------------------------------|--------------------------------|
B|--------------------------------| 0------------------------------|
G|--------------------------------| 0------------------------------|
D|--------------------------------| 0------------------------------|
A|---- 7---- 5---------------- 5--|---- 7------ 5-------------- 5--|
E|-------- 0------ 0-- 0-- 7------| 0------ 0------ 0-- 0-- 7------|

E|--------------------------------|--------------------------------|
B| 5---------- 5---------- 5------| 7---------- 7-------- 7------ 8|
G| 5---------- 5---------- 5------| 7---------------------- 7---- 0|
D| 5---------- 5---------- 5------| 7---------- 7-------- 7------ 0|
A|--------------------------------|--------------------------------|
E| 0-- 0-- 0-- 0-- 0-- 0-- 0-- 0--| 0-- 0-- 0-- 0-- 0-- 0-- 0-- 0 0|

E|--------------------------------|--------------------------------|
B|--------------------------------| 0------------------------------|
G|--------------------------------| 0------------------------------|
D|--------------------------------| 0------------------------------|
A|---- 7---- 5---------------- 5--|---- 7------ 5-------------- 5--|
E|-------- 0------ 0-- 0-- 7------| 0------ 0------ 0-- 0-- 7------|

E|--------------------------------|--------------------------------|
B|---- 0--------------------------|--------------------------------|
G|-- 0----------------------------|--------------------------------|
D|-- 4----------------------------|--------------------------------|
A|--------------------------------|--------------------------------|
E| 0------------------------------|--------------------------------|

E|--------------------------------|--------------------------------|
B|--------------------------------|--------------------------------|
G|--------------------------------|--------------------------------|
D|--------------------------------|--------------------------------|
A|--------------------------------|--------------------------------|
E|--------------------------------|--------------------------------|
comments
We did not receive enough feedback on this tab! Please rate:
print report bad tab
1 2 3 4 5
I want to post or [tab]
guest
You may want to rate the tab now too:
select rating
Please do not post tabs as comments. Select "correction" instead!