Oops, an error
Loading. Please wait.

Livin On A Prayer Tab

ver4
ver4

Solo

Video

More versions @911Tabs.com
81,557 views 78 this week
3 commentsread comments
1 2 3 4 5
accurate
x 14
Autoscroll
+/-
esc
set tempo
stop
Contributor
Difficulty
advanced
WARNING: You are trying to view
                                    content from Ultimate-Guitar.com
                                    in an unauthorized application,
                                    which is prohibited.

                                    Please use an official Ultimate
                                    Guitar Tabs application for iPhone,
                                    iPad or Android to access legitimate
                                    chords, guitar, bass, and drum tabs
                                    from Ultimate-Guitar.com database.

                                    Type "ultimate guitar tabs" in Apple
                                    App Store's or Android Market's
                                    search to find the application.
Livin' on a Prayer acoustic cover                         


Raita 1
     E  E  E  E  E  E  E  E     E  E  E  E  E  E  E  E   
E||--0-----------------------|--------------------------|
B||--0-----------------------|--------------------------|
G||--0-----------------------|--------------------------|
D||-----2-----0-----------0--|-----2-----0-----------0--|
A||--------2-----------2-----|--------2-----------2-----|
E||--0-----------0--0--------|--0-----------0--0--------|


  E  E  E  E  E  E  E  E     E  E  E  E  E  E  E  E   
--0-----------------------|--0-----------------------|
--1-----------------------|--3-----------------------|
--0-----------------------|--2-----------------------|
-----2-----0-----------0--|--2--2-----0-----------0--|
--------2-----------2-----|--------2-----------2-----|
--0-----------0--0--------|--0-----------0--0--------|


  E  E  E  E  E  E  E  E     E  E  E  E  E  E  E  E   
--0-----------------------|--------------------------|
--0-----------------------|--------------------------|
--0-----------------------|--------------------------|
-----2-----0-----------0--|-----2-----0-----------0--|
--------2-----------2-----|--------2-----------2-----|
--0-----------0--0--------|--0-----------0--0--------|


   E  E  E   E  E  E  E  E     E  E  E  E  E  E  E  E   
--/3--3--2p--0--0-----0--0--|--------------------------|
-------------------3--------|-----0--------------------|
----------------------------|--------------------------|
------2------0-----------0--|-----2-----0-----------0--|
---------2------------2-----|--------2-----------2-----|
---0------------0--0--------|--0-----------0--0--------|


   E  E  E  E  E  E  E  E      E  E  E  E  E  E  E  E   
--/3--3--2--0--0--------2h--|--3--2-----0--0-----------|
----------------------------|--------------------0-----|
----------------------------|--------------------------|
------2-----0-----------0---|-----2-----0-----------0--|
---------2-----------2------|--------2-----------2-----|
---0-----------0--0---------|--0-----------0--0--------|


  E  E  E  E  E  E  E  E      E  E  E  E  E  E  E  E   
---------------------------|--------------------------|
---------------------------|--3--------------0--------|
--2--0---------------------|-----------------------2--|
---------------------------|--4--------------0--0--0--|
--3--3--3--3--3--3--3--3s--|--5--5--5--5--5-----------|
---------------------------|--------------------------|


  E  E  E  E  E  E  E  E     E  E  E  E  E  E  E  E   
--------------------------|--------------------------|
-----0--------------------|--------------------------|
--------------------------|--------------------------|
-----2-----0-----------0--|-----2-----0-----------0--|
--------2-----------2-----|--------2-----------2-----|
--0-----------0--0--------|--0-----------0--0--------|


   E  E  E   E  E  E  E  E     E  E  E  E  E  E  E  E   
--/3--3--2p--0--0-----0--0--|--------------------------|
-------------------3--------|-----0--------------------|
----------------------------|--------------------------|
------2------0-----------0--|-----2-----0-----------0--|
---------2------------2-----|--------2-----------2-----|
---0------------0--0--------|--0-----------0--0--------|


   E  E  E  E  E  E  E  E      E  E  E  E  E  E  E  E   
--/3--3--2--0--0--------2h--|--3--2-----0--0-----------|
----------------------------|--------------------0-----|
----------------------------|--------------------------|
------2-----0-----------0---|-----2-----0-----------0--|
---------2-----------2------|--------2-----------2-----|
---0-----------0--0---------|--0-----------0--0--------|


  E  E  E  E  E  E  E  E      E  E  E  E  E  E  E   E    
---------------------------|----------------------------|
---------------------------|--------------0-------------|
--2--0---------------------|--------0-----------0h--2s--|
---------------------------|-----4-----4-----4----------|
--3--3--3--3--3--3--3--3s--|--5-------------------------|
---------------------------|----------------------------|


  E  E  E  E  E  E  E  E     E  E  E  E  E  E  E  E   
--------------------------|--------------------------|
-----0--------------------|--------------0--3--3--0--|
--2-----------------------|--------------------------|
-----2-----0-----------0--|-----2-----0-----0-----0--|
--------2-----------2-----|--------2-----------2-----|
--0-----------0--0--------|--0-----------0-----------|


  E  E  E  Q    E  E   E     E  S  S Q    Q    E  E   
--0-----------------------|----------0----0----x--0--|
-----------3----x--3p--0--|--3------------0----x--1--|
-----------2----x--2------|---------------0----x--0--|
-----------0----0--0------|-----3h-4------2----x--2--|
--3--2--0-----------------|---------------2----x--3--|
--------------------------|---------------0----------|


  E  E  E  E  Q    E   E     E  S  S Q    Q    E  E   
-----0--0--0--------------|----------0----0----x--0--|
-----1--1--1--3----3p--0--|--3------------0----x--1--|
-----0--0--0--2----2------|---------------0----x--0--|
-----2--2--2--0----0------|-----3h-4------2----x--2--|
-----3--3--3--------------|---------------2----x--3--|
--------------------------|---------------0----------|


  E  E  E  E  Q    E   E     Q    Q    Q    E   E     E   E  E  E  E  E  E  E   
-----0--0--0--------------|-------0----------------|------------------0--0--0--|
-----1--1--1--3----3p--0--|--3---------0-----------|---------------1--1--1--1--|
-----0--0--0--2----2------|--2----2----0----2p--0--|--2p--0-----0--0--0--0--0--|
-----2--2--2--0----0------|--0---------2----2------|------2--2--2--2--2--2--2--|
-----3--3--3--------------|------------------------|--3---3--3--3--3--3--3--3--|
--------------------------|------------0----0------|---------------------------|


                 v                                                         
  E.  E.  E  E   Q    E     Q    E  Q    E  E  E     E  E  Q    Q    Q     
--3---2---0--0---x-------|--3-------3----3-----3--|-----3--2----0---------|
--3---3---3--3---x----x--|--0----x--1----1--x--3--|-----3--3----3----3----|
--2---2---2--2---x----x--|--0----x--0----0--x--2--|-----2--2----2----2----|
--0---0---0--0---x----x--|--2----x--2----2--x--0--|-----0--0----0----0----|
-----------------x----x--|--2----x--3----3--x-----|-----------------------|
-----------------x-------|--0---------------------|-----------------------|


   Q    E   Q     E  E  E     E  E  Q    Q     Q       E  E   E  Q    E  E  E   
--/7--------8-----8-----8--|-----8--7---------------|--3--3s--5--3----3-----3--|
--------x---8-----8--x--8--|-----8--8----8----10----|--0---------1----1--x--3--|
---0----x---9-----9--x--7--|-----7--7----7-----7----|--0---------0----0--x--2--|
---0----x--10----10--x--0--|--0--0--0----0-----0----|--2---------2----2--x--0--|
--------x--10----10--x-----|------------------------|--2---------3----3--x-----|
--/3--------8-----8--------|------------------------|--0-----------------------|


  E  E  Q    Q    Q        Q    E   Q     E  E  E     E  E  Q    Q     Q     
-----3--2----0---------|--/7--------8-----8-----8--|-----8--7---------------|
-----3--3----3----3----|--------x---8-----8--x--8--|-----8--8----8----10----|
-----2--2----2----2----|---0----x---9-----9--x--7--|-----7--7----7-----7----|
--0--0--0----0----0----|---0----x--10----10--x--0--|--0--0--0----0-----0----|
-----------------------|--------x--10----10--x-----|------------------------|
-----------------------|--/3--------8-----8--------|------------------------|


  ^                             PM PM PM              
  E  E  E  E  E  E  E  E     E  E  E  E  E  E  E  E   
--0--0--------------------|--------------------------|
--0--0--------------------|--------------------------|
--0--0--------------------|--------------------------|
--2--------0-----------0--|-----2-----0-----------0--|
--2-----2-----------2-----|--------2-----------2-----|
--0-----------0--0--------|--0-----------0--0--------|


  E  E  E  E  E  E  E  E       E  E  E  E  E  E  E  E   
--------------------------|----0-----------------------|
--------------------------|--2g3-----------------------|
-----0--------------------|----2-----------------------|
-----------0-----------0--|-------2-----0-----------0--|
--------2-----------2-----|----------2-----------2-----|
--0-----------0--0--------|----0-----------0--0--------|


                             (Improvisoi?)                                  
  E  E  E  E  E  E  E  E     S             S S S S S S S S S S S S S S T T  
--0-----------------------|--5-------------6-5-3-5-3---3-------------------|
--0-----------------------|--------------------------5---5-3---3-----------|
--0-----------------------|----------------------------------4---4-2-4-----|
-----2-----0-----------0--|--------------------------------------------2-0-|
--------2-----------2-----|------------------------------------------------|
--0-----------0--0--------|------------------------------------------------|


   E  E  E   E  E  E  E  E     E  E  E  E  E  E  E  E   
--/3--3--2p--0--0-----0--0--|--------------------------|
-------------------3--------|-----0--------------------|
----------------------------|--------------------------|
------2------0-----------0--|-----2-----0-----------0--|
---------2------------2-----|--------2-----------2-----|
---0------------0--0--------|--0-----------0--0--------|


   E  E  E  E  E  E  E  E      E  E  E  E  E  E  E  E   
--/3--3--2--0--0--------2h--|--3--2-----0--0-----------|
----------------------------|--------------------0-----|
----------------------------|--------------------------|
------2-----0-----------0---|-----2-----0-----------0--|
---------2-----------2------|--------2-----------2-----|
---0-----------0--0---------|--0-----------0--0--------|


  E  E  E  E  E  E  E  E      E  E  E  E  E  E  E  E   
---------------------------|--------------------------|
---------------------------|--3--------------0--------|
--2--0---------------------|-----------------------2--|
---------------------------|--4--------------0--0--0--|
--3--3--3--3--3--3--3--3s--|--5--5--5--5--5-----------|
---------------------------|--------------------------|


  E  E  E  E  E  E  E  E     E  E  E  E  E  E  E  E   
--------------------------|--------------------------|
-----0--------------------|--------------------------|
--------------------------|--------------------------|
-----2-----0-----------0--|-----2-----0-----------0--|
--------2-----------2-----|--------2-----------2-----|
--0-----------0--0--------|--0-----------0--0--------|


   E  E  E   E  E  E  E  E     E  E  E  E  E  E  E  E   
--/3--3--2p--0--0-----0--0--|--------------------------|
-------------------3--------|-----0--------------------|
----------------------------|--------------------------|
------2------0-----------0--|-----2-----0-----------0--|
---------2------------2-----|--------2-----------2-----|
---0------------0--0--------|--0-----------0--0--------|


   E  E  E  E  E  E  E  E      E  E  E  E  E  E  E  E   
--/3--3--2--0--0--------2h--|--3--2-----0--0-----------|
----------------------------|--------------------0-----|
----------------------------|--------------------------|
------2-----0-----------0---|-----2-----0-----------0--|
---------2-----------2------|--------2-----------2-----|
---0-----------0--0---------|--0-----------0--0--------|


  E  E  E  E  E  E  E  E      E  E  E  E  E  E  E  E   
---------------------------|--------------------------|
---------------------------|--3--------------0--------|
--2--0---------------------|-----------------------2--|
---------------------------|--4--------------0--0--0--|
--3--3--3--3--3--3--3--3s--|--5--5--5--5--5-----------|
---------------------------|--------------------------|


  E  E  E  E  E  E  E  E     E  E  E  E  E  E  E  E   
--------------------------|--------------------------|
-----0--------------------|--------------0--3--3--0--|
--------------------------|--------------------------|
-----2-----0-----------0--|-----2-----0-----0-----0--|
--------2-----------2-----|--------2-----------2-----|
--0-----------0--0--------|--0-----------0-----------|


  E  E  E  Q    E  E   E     E  S  S Q    Q    E  E   
--0-----------------------|----------0----0----x--0--|
-----------3----x--3p--0--|--3------------0----x--1--|
-----------2----x--2------|---------------0----x--0--|
-----------0----0--0------|-----3h-4------2----x--2--|
--3--2--0-----------------|---------------2----x--3--|
--------------------------|---------------0----------|


  E  E  E  E  Q    E   E     E  S  S Q    Q    E  E   
-----0--0--0--------------|----------0----0----x--0--|
-----1--1--1--3----3p--0--|--3------------0----x--1--|
-----0--0--0--2----2------|---------------0----x--0--|
-----2--2--2--0----0------|-----3h-4------2----x--2--|
-----3--3--3--------------|---------------2----x--3--|
--------------------------|---------------0----------|


  E  E  E  E  Q    E   E     Q    Q    Q    E   E     E   E  E  E  E  E  E  E   
-----0--0--0--------------|-------0----------------|------------------0--0--0--|
-----1--1--1--3----3p--0--|--3---------0-----------|---------------1--1--1--1--|
-----0--0--0--2----2------|--2----2----0----2p--0--|--2p--0-----0--0--0--0--0--|
-----2--2--2--0----0------|--0---------2----2------|------2--2--2--2--2--2--2--|
-----3--3--3--------------|------------------------|--3---3--3--3--3--3--3--3--|
--------------------------|------------0----0------|---------------------------|


                 v                                                         
  E.  E.  E  E   Q    E     Q    E  Q    E  E  E     E  E  Q    Q    Q     
--3---2---0--0---x-------|--3-------3----3-----3--|-----3--2----0---------|
--3---3---3--3---x----x--|--0----x--1----1--x--3--|-----3--3----3----3----|
--2---2---2--2---x----x--|--0----x--0----0--x--2--|-----2--2----2----2----|
--0---0---0--0---x----x--|--2----x--2----2--x--0--|-----0--0----0----0----|
-----------------x----x--|--2----x--3----3--x-----|-----------------------|
-----------------x-------|--0---------------------|-----------------------|


   Q    E   Q     E  E  E     E  E  Q    Q     Q       E  E   E  Q    E  E  E   
--/7--------8-----8-----8--|-----8--7---------------|--3--3s--5--3----3-----3--|
--------x---8-----8--x--8--|-----8--8----8----10----|--0---------1----1--x--3--|
---0----x---9-----9--x--7--|-----7--7----7-----7----|--0---------0----0--x--2--|
---0----x--10----10--x--0--|--0--0--0----0-----0----|--2---------2----2--x--0--|
--------x--10----10--x-----|------------------------|--2---------3----3--x-----|
--/3--------8-----8--------|------------------------|--0-----------------------|


  E  E  Q    Q    Q        Q    E   Q     E  E  E     E  E  Q    Q     Q     
-----3--2----0---------|--/7--------8-----8-----8--|-----8--7---------------|
-----3--3----3----3----|--------x---8-----8--x--8--|-----8--8----8----10----|
-----2--2----2----2----|---0----x---9-----9--x--7--|-----7--7----7-----7----|
--0--0--0----0----0----|---0----x--10----10--x--0--|--0--0--0----0-----0----|
-----------------------|--------x--10----10--x-----|------------------------|
-----------------------|--/3--------8-----8--------|------------------------|


  E  E  E  E  E   E  E   E     E   E  E  E  E  E  E  E   
--8-----8--8----------------|---------------------------|
--8-----8--8-----12-----12--|-----10--8-----------------|
--9-----9--9------9------9--|------9--9-----------------|
----------------------------|---------------------------|
----------------------------|---------------------------|
--8--8--8--8--8---8--8---8--|--8---8--8--8--8--8--8--8--|


  E  E  E  E  E  E  E  E     E  E  Q     E  T  T  S Q     
--0-----0-----3--5--7-----|--5--------------3h-5p-3------|
-----3--------------------|-----3--3~---------------7----|
--------------------------|------------------------------|
--------------------------|--0--0--0-----0---------------|
--------------3--3--3--3--|------------------------------|
--0--0--0--0--------------|------------------------------|


  E  E  E  Q    E  E  E     E  E  Q    E  E  Q     
--3----------------0--0--|------------------------|
-----3-----1----3--------|-----3--3----3--3--3----|
--------4----------------|--------2----2--2--2----|
----------------------0--|-----0--0----0--0--0----|
-----------3----3--3-----|------------------------|
--3--3--3----------------|------------------------|


  E  E  E   Q     E  E  S  S    E  E  E   E  E  E  E   E   
--3--3------8-----8-----2h-3-|--2------------------0h--2--|
--0--0--x---8-----8--x-------|-----3----------------------|
--0--0--x---9-----9--x-------|--------2~------------------|
--2--2--x--10----10--x-------|--0--0--0---0--0--0--0---0--|
--2-----x--10--------x-------|----------------------------|
--0---------8----------------|----------------------------|


  E  E  E  Q     E  E  E     Q    Q    E  E  E  E     E  E  E  E  E  E  E  E   
--3-----------------------|-------0----------------|-----------------0--0--0--|
-----3-----1p----0--------|-------0----------------|--------------0--0--0--0--|
--------4-----------0--0--|-------0----------------|--------0--0--0--0--0--0--|
--------------------------|--2----2----------------|--2--2--2--2--2--2--2--2--|
-----------3-----3--3-----|--2------------------2--|--2--2--2--2--2--2--2--2--|
--3--3--3-----------------|--0---------0--0--0--0--|--0--0--0--0--0--0--0--0--|


  Q    E  Q    E  E   E     Q    Q    Q    Q       E.  E.  E  E.  E.  E   
--0-------2----2--2------|-------0----0---------|--0---0---0--0---0---0--|
--1----x--3----3--3p--0--|--3----3----0----x----|--1---1---3--1---3---1--|
--0----x--2----2--2------|--2----2----0----x----|--0---0---0--0---0---0--|
--2----x--0----0--0------|--0----0----2----x----|--2---2---2--2---2---2--|
--3----x-----------------|------------2----x----|--3-------3--3---3---3--|
-------------------------|------------0---------|------------------------|


                v                                                         
  E.  E.  E  E  Q    E     Q    E  Q    E  E  E     E  E  Q    Q    Q     
--2---2---0--2--x-------|--3-------3----3-----3--|-----3--2----0---------|
--3---3---3--3--x----x--|--0----x--1----1--x--3--|-----3--3----3----3----|
--2---2---2--2--x----x--|--0----x--0----0--x--2--|-----2--2----2----2----|
--0---0---0--0--x----x--|--2----x--2----2--x--0--|-----0--0----0----0----|
----------------x----x--|--2----x--3----3--x-----|-----------------------|
----------------x-------|--0---------------------|-----------------------|


   Q    E   Q     E  E  E     E  E  Q    Q     Q       E  E   E  Q    E  E  E   
--/7--------8-----8-----8--|-----8--7---------------|--3--3s--5--3----3-----3--|
--------x---8-----8--x--8--|-----8--8----8----10----|--0---------1----1--x--3--|
---0----x---9-----9--x--7--|-----7--7----7-----7----|--0---------0----0--x--2--|
---0----x--10----10--x--0--|--0--0--0----0-----0----|--2---------2----2--x--0--|
--------x--10----10--x-----|------------------------|--2---------3----3--x-----|
--/3--------8-----8--------|------------------------|--0-----------------------|


  E  E  Q    Q    Q        Q    E   Q     E  E  E     E  E  Q    H         
-----3--2----0---------|--/7--------8-----8-----8--|-----8--7-------------|
-----3--3----3----3----|--------x---8-----8--x--8--|-----8--8----8--------|
-----2--2----2----2----|---0----x---9-----9--x--7--|-----7--7----7--------|
--0--0--0----0----0----|---0----x--10----10--x--0--|--0--0--0----0--------|
-----------------------|--------x--10----10--x-----|----------------------|
-----------------------|--/3--------8-----8--------|----------------------|


  Q    Q      H            E  E  E  E  H         
------------------------|--------------0--------|
-------8h----10~--------|-----------0-----------|
-------7----------------|--0-----0--------------|
-------0----------------|--2--2-----------------|
------------------------|-----------------------|
------------------------|--0--------------------|


     NH   NH    NH    NH    NH    NH           NH     NH     NH        
     E    E     E     E     E     E  Q         Q      Q      H         
-------------------------<>12-------------|---------------------------|
-------------<>12--------------<>12-------|--<>7----------------------|
--<>12-------------<>12-------------------|---------------------------|
------------------------------------------|---------<>5----<>7--------|
--------<>7-------------------------------|---------------------------|
------------------------------------------|---------------------------|


    NH   NH   \1/              ^                   
    E    E    H        Q       Q    H.             
------------<>5-------------|--0-----------------||
-------<>5------------------|--0-----------------||
--<>5-----------------------|--0-----------------||
----------------------------|--2-----------------||
----------------------------|--2-----------------||
----------------------------|--0-----------------||
3 comments total.
+1 reply
Insaneboy wrote on December 11 2008, 05:28 pm

Hard one! But it's awesome! 5 Stars!

0 reply
Symof90 wrote on June 3 2009, 01:04 pm

Great, just great! It look like this cover http://www.youtube.com/watch?v=2DctCyO-E3s Maybe the best ive seen on this site !:D 5*

-1 reply
Sleight wrote on June 19 2010, 11:01 am

if u ask me this tab sucks
maybe notes are perfect, but a lot is repeating and not needed to tab 20 times
also i cant find the special pieces in this, which i just happen to look for...

I want to post or [tab]
guest
You may want to rate the tab now too:
select rating
Please do not post tabs as comments. Select "correction" instead!